  0
SECTION
  2
HEADER
  9
$ACADVER
  1
AC1021
  9
$ACADMAINTVER
 70
    50
  9
$DWGCODEPAGE
  3
ANSI_1252
  9
$TITLE
  1
PBS-5 STRAIGHT BENCH ASSEMBLY
  9
$AUTHOR
  1
DRESENER
  9
$LASTSAVEDBY
  1
Derrick Resener
  9
$REVISIONNUMBER
  1
NEW
  9
$CUSTOMPROPERTYTAG
  1
Manager
  9
$CUSTOMPROPERTY
  1

  9
$CUSTOMPROPERTYTAG
  1
Company
  9
$CUSTOMPROPERTY
  1

  9
$CUSTOMPROPERTYTAG
  1
Category
  9
$CUSTOMPROPERTY
  1

  9
$CUSTOMPROPERTYTAG
  1
Part Number
  9
$CUSTOMPROPERTY
  1
PBS-5
  9
$CUSTOMPROPERTYTAG
  1
Description
  9
$CUSTOMPROPERTY
  1
PBS-5 STRAIGHT BENCH ASSEMBLY
  9
$CUSTOMPROPERTYTAG
  1
Project
  9
$CUSTOMPROPERTY
  1

  9
$CUSTOMPROPERTYTAG
  1
Designer
  9
$CUSTOMPROPERTY
  1
DRESENER
  9
$CUSTOMPROPERTYTAG
  1
Engineer
  9
$CUSTOMPROPERTY
  1

  9
$CUSTOMPROPERTYTAG
  1
Authority
  9
$CUSTOMPROPERTY
  1

  9
$CUSTOMPROPERTYTAG
  1
Cost Center
  9
$CUSTOMPROPERTY
  1

  9
$CUSTOMPROPERTYTAG
  1
Vendor
  9
$CUSTOMPROPERTY
  1

  9
$CUSTOMPROPERTYTAG
  1
User Status
  9
$CUSTOMPROPERTY
  1

  9
$CUSTOMPROPERTYTAG
  1
Design Status
  9
$CUSTOMPROPERTY
  1
WorkInProgress
  9
$CUSTOMPROPERTYTAG
  1
Checked by
  9
$CUSTOMPROPERTY
  1

  9
$CUSTOMPROPERTYTAG
  1
Engr Approved by
  9
$CUSTOMPROPERTY
  1

  9
$CUSTOMPROPERTYTAG
  1
Mfg Approved by
  9
$CUSTOMPROPERTY
  1

  9
$INSBASE
 10
0.0
 20
0.0
 30
0.0
  9
$EXTMIN
 10
7.692413595146973
 20
24.52362083192407
 30
-0.0015258207003583
  9
$EXTMAX
 10
101.9467165553322
 20
88.18023701801456
 30
0.0000000349246037
  9
$LIMMIN
 10
0.0
 20
0.0
  9
$LIMMAX
 10
110.0
 20
85.0
  9
$ORTHOMODE
 70
     1
  9
$REGENMODE
 70
     1
  9
$FILLMODE
 70
     1
  9
$QTEXTMODE
 70
     0
  9
$MIRRTEXT
 70
     0
  9
$LTSCALE
 40
5.0
  9
$ATTMODE
 70
     1
  9
$TEXTSIZE
 40
0.2
  9
$TRACEWID
 40
0.05
  9
$TEXTSTYLE
  7
Standard
  9
$CLAYER
  8
0
  9
$CELTYPE
  6
ByLayer
  9
$CECOLOR
 62
   256
  9
$CELTSCALE
 40
1.0
  9
$DISPSILH
 70
     0
  9
$DIMSCALE
 40
1.0
  9
$DIMASZ
 40
0.12
  9
$DIMEXO
 40
0.05
  9
$DIMDLI
 40
0.5
  9
$DIMRND
 40
0.0
  9
$DIMDLE
 40
0.0
  9
$DIMEXE
 40
0.1
  9
$DIMTP
 40
0.1
  9
$DIMTM
 40
0.1
  9
$DIMTXT
 40
0.12
  9
$DIMCEN
 40
0.0
  9
$DIMTSZ
 40
0.0
  9
$DIMTOL
 70
     0
  9
$DIMLIM
 70
     0
  9
$DIMTIH
 70
     1
  9
$DIMTOH
 70
     1
  9
$DIMSE1
 70
     0
  9
$DIMSE2
 70
     0
  9
$DIMTAD
 70
     0
  9
$DIMZIN
 70
     7
  9
$DIMBLK
  1

  9
$DIMASO
 70
     1
  9
$DIMSHO
 70
     1
  9
$DIMPOST
  1

  9
$DIMAPOST
  1
mm
  9
$DIMALT
 70
     0
  9
$DIMALTD
 70
     2
  9
$DIMALTF
 40
25.4
  9
$DIMLFAC
 40
1.0
  9
$DIMTOFL
 70
     0
  9
$DIMTVP
 40
0.0
  9
$DIMTIX
 70
     0
  9
$DIMSOXD
 70
     0
  9
$DIMSAH
 70
     0
  9
$DIMBLK1
  1

  9
$DIMBLK2
  1

  9
$DIMSTYLE
  2
AM_ANSI
  9
$DIMCLRD
 70
   256
  9
$DIMCLRE
 70
   256
  9
$DIMCLRT
 70
     2
  9
$DIMTFAC
 40
0.71
  9
$DIMGAP
 40
0.06
  9
$DIMJUST
 70
     0
  9
$DIMSD1
 70
     0
  9
$DIMSD2
 70
     0
  9
$DIMTOLJ
 70
     1
  9
$DIMTZIN
 70
     7
  9
$DIMALTZ
 70
     0
  9
$DIMALTTZ
 70
     0
  9
$DIMUPT
 70
     0
  9
$DIMDEC
 70
     4
  9
$DIMTDEC
 70
     4
  9
$DIMALTU
 70
     2
  9
$DIMALTTD
 70
     4
  9
$DIMTXSTY
  7
Standard
  9
$DIMAUNIT
 70
     0
  9
$DIMADEC
 70
     0
  9
$DIMALTRND
 40
0.0
  9
$DIMAZIN
 70
     2
  9
$DIMDSEP
 70
    46
  9
$DIMATFIT
 70
     3
  9
$DIMFRAC
 70
     0
  9
$DIMLDRBLK
  1

  9
$DIMLUNIT
 70
     2
  9
$DIMLWD
 70
    -1
  9
$DIMLWE
 70
    -1
  9
$DIMTMOVE
 70
     0
  9
$DIMFXL
 40
1.0
  9
$DIMFXLON
 70
     0
  9
$DIMJOGANG
 40
0.7853981633974483
  9
$DIMTFILL
 70
     0
  9
$DIMTFILLCLR
 70
     0
  9
$DIMARCSYM
 70
     1
  9
$DIMLTYPE
  6
ByBlock
  9
$DIMLTEX1
  6
ByBlock
  9
$DIMLTEX2
  6
ByBlock
  9
$LUNITS
 70
     2
  9
$LUPREC
 70
     4
  9
$SKETCHINC
 40
0.1
  9
$FILLETRAD
 40
0.0
  9
$AUNITS
 70
     0
  9
$AUPREC
 70
     0
  9
$MENU
  1
.
  9
$ELEVATION
 40
0.0
  9
$PELEVATION
 40
0.0
  9
$THICKNESS
 40
0.0
  9
$LIMCHECK
 70
     0
  9
$CHAMFERA
 40
0.0
  9
$CHAMFERB
 40
0.0
  9
$CHAMFERC
 40
0.0
  9
$CHAMFERD
 40
0.0
  9
$SKPOLY
 70
     0
  9
$TDCREATE
 40
2454836.646536435
  9
$TDUCREATE
 40
2454836.979869769
  9
$TDUPDATE
 40
2454836.651442199
  9
$TDUUPDATE
 40
2454836.984775533
  9
$TDINDWG
 40
0.0015831019
  9
$TDUSRTIMER
 40
0.0015830440
  9
$USRTIMER
 70
     1
  9
$ANGBASE
 50
0.0
  9
$ANGDIR
 70
     0
  9
$PDMODE
 70
     0
  9
$PDSIZE
 40
0.0
  9
$PLINEWID
 40
0.0
  9
$SPLFRAME
 70
     0
  9
$SPLINETYPE
 70
     6
  9
$SPLINESEGS
 70
     8
  9
$HANDSEED
  5
EC7
  9
$SURFTAB1
 70
     6
  9
$SURFTAB2
 70
     6
  9
$SURFTYPE
 70
     6
  9
$SURFU
 70
     6
  9
$SURFV
 70
     6
  9
$UCSBASE
  2

  9
$UCSNAME
  2

  9
$UCSORG
 10
0.0
 20
0.0
 30
0.0
  9
$UCSXDIR
 10
1.0
 20
0.0
 30
0.0
  9
$UCSYDIR
 10
0.0
 20
1.0
 30
0.0
  9
$UCSORTHOREF
  2

  9
$UCSORTHOVIEW
 70
     0
  9
$UCSORGTOP
 10
0.0
 20
0.0
 30
0.0
  9
$UCSORGBOTTOM
 10
0.0
 20
0.0
 30
0.0
  9
$UCSORGLEFT
 10
0.0
 20
0.0
 30
0.0
  9
$UCSORGRIGHT
 10
0.0
 20
0.0
 30
0.0
  9
$UCSORGFRONT
 10
0.0
 20
0.0
 30
0.0
  9
$UCSORGBACK
 10
0.0
 20
0.0
 30
0.0
  9
$PUCSBASE
  2

  9
$PUCSNAME
  2

  9
$PUCSORG
 10
0.0
 20
0.0
 30
0.0
  9
$PUCSXDIR
 10
1.0
 20
0.0
 30
0.0
  9
$PUCSYDIR
 10
0.0
 20
1.0
 30
0.0
  9
$PUCSORTHOREF
  2

  9
$PUCSORTHOVIEW
 70
     0
  9
$PUCSORGTOP
 10
0.0
 20
0.0
 30
0.0
  9
$PUCSORGBOTTOM
 10
0.0
 20
0.0
 30
0.0
  9
$PUCSORGLEFT
 10
0.0
 20
0.0
 30
0.0
  9
$PUCSORGRIGHT
 10
0.0
 20
0.0
 30
0.0
  9
$PUCSORGFRONT
 10
0.0
 20
0.0
 30
0.0
  9
$PUCSORGBACK
 10
0.0
 20
0.0
 30
0.0
  9
$USERI1
 70
     0
  9
$USERI2
 70
     0
  9
$USERI3
 70
     0
  9
$USERI4
 70
     0
  9
$USERI5
 70
     0
  9
$USERR1
 40
0.0
  9
$USERR2
 40
0.0
  9
$USERR3
 40
0.0
  9
$USERR4
 40
0.0
  9
$USERR5
 40
0.0
  9
$WORLDVIEW
 70
     1
  9
$SHADEDGE
 70
     3
  9
$SHADEDIF
 70
    70
  9
$TILEMODE
 70
     1
  9
$MAXACTVP
 70
    64
  9
$PINSBASE
 10
0.0
 20
0.0
 30
0.0
  9
$PLIMCHECK
 70
     0
  9
$PEXTMIN
 10
0.0
 20
0.0
 30
0.0
  9
$PEXTMAX
 10
110.0
 20
85.0
 30
0.0
  9
$PLIMMIN
 10
0.0
 20
0.0
  9
$PLIMMAX
 10
110.0
 20
85.0
  9
$UNITMODE
 70
     0
  9
$VISRETAIN
 70
     1
  9
$PLINEGEN
 70
     0
  9
$PSLTSCALE
 70
     1
  9
$TREEDEPTH
 70
  3020
  9
$CMLSTYLE
  2
Standard
  9
$CMLJUST
 70
     0
  9
$CMLSCALE
 40
1.0
  9
$PROXYGRAPHICS
 70
     1
  9
$MEASUREMENT
 70
     0
  9
$CELWEIGHT
370
    -1
  9
$ENDCAPS
280
     0
  9
$JOINSTYLE
280
     0
  9
$LWDISPLAY
290
     0
  9
$INSUNITS
 70
     1
  9
$HYPERLINKBASE
  1

  9
$STYLESHEET
  1

  9
$XEDIT
290
     1
  9
$CEPSNTYPE
380
     0
  9
$PSTYLEMODE
290
     1
  9
$FINGERPRINTGUID
  2
{6458B48A-7A09-4DBE-86D6-3153B1FF2539}
  9
$VERSIONGUID
  2
{C42E67C9-014A-4424-89F1-B998F255434F}
  9
$EXTNAMES
290
     1
  9
$PSVPSCALE
 40
0.0
  9
$OLESTARTUP
290
     0
  9
$SORTENTS
280
   127
  9
$INDEXCTL
280
     0
  9
$HIDETEXT
280
     1
  9
$XCLIPFRAME
290
     0
  9
$HALOGAP
280
     0
  9
$OBSCOLOR
 70
   257
  9
$OBSLTYPE
280
     0
  9
$INTERSECTIONDISPLAY
280
     0
  9
$INTERSECTIONCOLOR
 70
   257
  9
$DIMASSOC
280
     1
  9
$PROJECTNAME
  1

  9
$CAMERADISPLAY
290
     0
  9
$LENSLENGTH
 40
50.0
  9
$CAMERAHEIGHT
 40
0.0
  9
$STEPSPERSEC
 40
2.0
  9
$STEPSIZE
 40
6.0
  9
$3DDWFPREC
 40
2.0
  9
$PSOLWIDTH
 40
0.25
  9
$PSOLHEIGHT
 40
4.0
  9
$LOFTANG1
 40
1.570796326794896
  9
$LOFTANG2
 40
1.570796326794896
  9
$LOFTMAG1
 40
0.0
  9
$LOFTMAG2
 40
0.0
  9
$LOFTPARAM
 70
     7
  9
$LOFTNORMALS
280
     1
  9
$LATITUDE
 40
37.795
  9
$LONGITUDE
 40
-122.394
  9
$NORTHDIRECTION
 40
0.0
  9
$TIMEZONE
 70
 -8000
  9
$LIGHTGLYPHDISPLAY
280
     1
  9
$TILEMODELIGHTSYNCH
280
     1
  9
$CMATERIAL
347
11
  9
$SOLIDHIST
280
     1
  9
$SHOWHIST
280
     1
  9
$DWFFRAME
280
     2
  9
$DGNFRAME
280
     0
  9
$REALWORLDSCALE
290
     1
  9
$INTERFERECOLOR
 62
     1
  9
$INTERFEREOBJVS
345
33
  9
$INTERFEREVPVS
346
30
  9
$CSHADOW
280
     0
  9
$SHADOWPLANELOCATION
 40
0.0
  0
ENDSEC
  0
SECTION
  2
CLASSES
  0
CLASS
  1
ACDBDICTIONARYWDFLT
  2
AcDbDictionaryWithDefault
  3
ObjectDBX Classes
 90
        0
 91
        1
280
     0
281
     0
  0
CLASS
  1
MATERIAL
  2
AcDbMaterial
  3
ObjectDBX Classes
 90
     1153
 91
        3
280
     0
281
     0
  0
CLASS
  1
VISUALSTYLE
  2
AcDbVisualStyle
  3
ObjectDBX Classes
 90
     4095
 91
       16
280
     0
281
     0
  0
CLASS
  1
SCALE
  2
AcDbScale
  3
ObjectDBX Classes
 90
     1153
 91
       33
280
     0
281
     0
  0
CLASS
  1
TABLESTYLE
  2
AcDbTableStyle
  3
ObjectDBX Classes
 90
     4095
 91
        1
280
     0
281
     0
  0
CLASS
  1
MLEADERSTYLE
  2
AcDbMLeaderStyle
  3
ACDB_MLEADERSTYLE_CLASS
 90
     4095
 91
        1
280
     0
281
     0
  0
CLASS
  1
CELLSTYLEMAP
  2
AcDbCellStyleMap
  3
ObjectDBX Classes
 90
     1152
 91
        2
280
     0
281
     0
  0
CLASS
  1
DICTIONARYVAR
  2
AcDbDictionaryVar
  3
ObjectDBX Classes
 90
        0
 91
        7
280
     0
281
     0
  0
CLASS
  1
AMGSETTINGSOBJ
  2
AmgSettingsObj
  3
"AcadM|Product Description: AutoCAD Mechanical|Company: Autodesk, Inc."
 90
     1024
 91
        2
280
     0
281
     0
  0
CLASS
  1
ACME_DOCUMENT
  2
AcMeDbDoc
  3
AcMeServices
 90
     1024
 91
        1
280
     0
281
     0
  0
CLASS
  1
ACMESCOPE
  2
AcMeScope
  3
AcMeServices
 90
     1024
 91
        1
280
     0
281
     0
  0
CLASS
  1
ACMECOMMANDHISTORY
  2
AcMeCommandHistory
  3
AcMeServices
 90
     1024
 91
        1
280
     0
281
     0
  0
CLASS
  1
ACIMSYSVARMAN
  2
AcImSysVarManager
  3
AcMeServices
 90
     1024
 91
        5
280
     0
281
     0
  0
CLASS
  1
ACIMINTSYSVAR
  2
AcImIntSysVar
  3
AcMeServices
 90
     1024
 91
       27
280
     0
281
     0
  0
CLASS
  1
ACMEDRAWINGMAN
  2
AcMeDrawingMan
  3
AcMeServices
 90
     1024
 91
        1
280
     0
281
     0
  0
CLASS
  1
ACMEVIEW
  2
AcMeView
  3
AcMeServices
 90
     1024
 91
        1
280
     0
281
     0
  0
CLASS
  1
ACDBENTITYCACHE
  2
AcMeEntityCache
  3
AcMeServices
 90
     1024
 91
        1
280
     0
281
     0
  0
CLASS
  1
GSMANAGER
  2
AcMeGSManager
  3
AcMeServices
 90
     1024
 91
        1
280
     0
281
     0
  0
CLASS
  1
AMDTINTERNALREACTOR
  2
AmdtInternalReactor
  3
AcMeServices
 90
     1024
 91
        2
280
     0
281
     0
  0
CLASS
  1
ACMESTATEMGR
  2
AcMeStateMgr
  3
AcMeServices
 90
     1024
 91
        1
280
     0
281
     0
  0
CLASS
  1
ACGREFMASTER
  2
AcGrefMaster
  3
AcAttribServices
 90
     1024
 91
        1
280
     0
281
     0
  0
CLASS
  1
AM_DRAWING_MGR
  2
AcDmDwgMgr
  3
AcMechDwgViewMgmt
 90
     1024
 91
        1
280
     0
281
     0
  0
CLASS
  1
AM_DWG_DOCUMENT
  2
AcDmDwgDocument
  3
AcMechDwgViewMgmt
 90
     1024
 91
        1
280
     0
281
     0
  0
CLASS
  1
AM_DWG_SHEET
  2
AcDmSheet
  3
AcMechDwgViewMgmt
 90
     1024
 91
        2
280
     0
281
     0
  0
CLASS
  1
AM_VIEWDIMPARMAP
  2
AcDmViewDimParMap
  3
AcMechDwgViewMgmt
 90
     1024
 91
        2
280
     0
281
     0
  0
CLASS
  1
ACIMREALSYSVAR
  2
AcImRealSysVar
  3
AcMeServices
 90
     1024
 91
        1
280
     0
281
     0
  0
CLASS
  1
AM_DWGMGR_NAME
  2
AcDmDwgMgrName
  3
AcMechDwgViewMgmt
 90
     1024
 91
        1
280
     0
281
     0
  0
CLASS
  1
ACME_DATABASE
  2
AcMeDbDatabase
  3
AcMeServices
 90
     1024
 91
        1
280
     0
281
     0
  0
CLASS
  1
ACRFINSADJUSTERMGR
  2
AcRfInsAdjusterMgr
  3
AcMeServices
 90
     1024
 91
        1
280
     0
281
     0
  0
CLASS
  1
ACGREFACADMASTER
  2
AcGrefacadMaster
  3
AcGrefServices
 90
     1024
 91
        1
280
     0
281
     0
  0
CLASS
  1
AMDTMENUSTATEMGR
  2
AmdtMenuStateMgr
  3
McadcomServices
 90
     1024
 91
        1
280
     0
281
     0
  0
CLASS
  1
AMDTMCOMMENUSTATE
  2
AmdtMcomMenuState
  3
McadcomServices
 90
     1024
 91
        1
280
     0
281
     0
  0
CLASS
  1
AMIMASTER
  2
AmiMaster
  3
AmiServices
 90
     1024
 91
        1
280
     0
281
     0
  0
CLASS
  1
MAPIAMMOUDLE
  2
MApiAmModule
  3
MApiAmServices
 90
     1024
 91
        1
280
     0
281
     0
  0
CLASS
  1
ACIMSTRSYSVAR
  2
AcImStrSysVar
  3
AcMeServices
 90
     1024
 91
        5
280
     0
281
     0
  0
CLASS
  1
AMDTADMENUSTATE
  2
AmdtAdMenuState
  3
DesignerServices
 90
     1024
 91
        1
280
     0
281
     0
  0
CLASS
  1
ADAPPL
  2
AcAdAppl
  3
DesignerServices
 90
     1024
 91
        1
280
     0
281
     0
  0
CLASS
  1
DEPMGR
  2
AcAdDepMgr
  3
DesignerServices
 90
     1024
 91
        1
280
     0
281
     0
  0
CLASS
  1
PARAMMGR
  2
AcAdParamMgr
  3
DesignerServices
 90
     1024
 91
        1
280
     0
281
     0
  0
CLASS
  1
PARAMSCOPE
  2
AcAdParamScope
  3
DesignerServices
 90
     1024
 91
        1
280
     0
281
     0
  0
CLASS
  1
NAMEDAPPL
  2
AcAdNamedAppl
  3
DesignerServices
 90
     1024
 91
        1
280
     0
281
     0
  0
CLASS
  1
AMDTDMMENUSTATE
  2
AmdtDmMenuState
  3
AcMechDwgViewMgmt
 90
     1024
 91
        1
280
     0
281
     0
  0
CLASS
  1
AMDTAMMENUSTATE
  2
AmdtAmMenuState
  3
DesignerAssemblies
 90
     1024
 91
        1
280
     0
281
     0
  0
CLASS
  1
ACAMPROJECT
  2
AcAmProject
  3
DesignerAssemblies
 90
     1024
 91
        1
280
     0
281
     0
  0
CLASS
  1
ACAMGRCOMPDEF
  2
AcAmGrCompDef
  3
DesignerAssemblies
 90
     1024
 91
        1
280
     0
281
     0
  0
CLASS
  1
ACCMCONTEXT
  2
AcCmContext
  3
DesignerAssemblies
 90
     1024
 91
        1
280
     0
281
     0
  0
CLASS
  1
ACAMCOMPDEF
  2
AcAmCompDef
  3
DesignerAssemblies
 90
     1024
 91
        1
280
     0
281
     0
  0
CLASS
  1
ACAMCOMPDEFMGR
  2
AcAmCompDefMgr
  3
DesignerAssemblies
 90
     1024
 91
        1
280
     0
281
     0
  0
CLASS
  1
AMCONTEXTMGR
  2
AcAmContextMgr
  3
DesignerAssemblies
 90
     1024
 91
        1
280
     0
281
     0
  0
CLASS
  1
ACAMCONTEXTMODELER
  2
AcAmContextModeler
  3
DesignerAssemblies
 90
     1024
 91
        1
280
     0
281
     0
  0
CLASS
  1
ACMDATADICTIONARY
  2
AcmDataDictionary
  3
"AcmSymBB|Product Description: AutoCAD Mechanical|Company: Autodesk, Inc."
 90
     1024
 91
        1
280
     0
281
     0
  0
CLASS
  1
CATALOGSTATE
  2
AcAmCatalogState
  3
DesignerAssemblies
 90
     1024
 91
        1
280
     0
281
     0
  0
CLASS
  1
ACAMGRCOMPDEFSET
  2
AcAmGrCompDefSet
  3
DesignerAssemblies
 90
     1024
 91
        1
280
     0
281
     0
  0
CLASS
  1
AMDTBROWSERDBTAB
  2
AmdtBrowserDbTab
  3
McadcomServices
 90
     1024
 91
        1
280
     0
281
     0
  0
CLASS
  1
CBROWSERAPPOBJECT
  2
CBrowserAppObject
  3
McadcomServices
 90
     1024
 91
        3
280
     0
281
     0
  0
CLASS
  1
DM_PLACEHOLDER
  2
AcDmSelsetPlaceholder
  3
AcMechDwgViewMgmt
 90
     1024
 91
        1
280
     0
281
     0
  0
CLASS
  1
EXACXREFPANELOBJECT
  2
ExAcXREFPanelObject
  3
EXAC_ESW
 90
     1025
 91
        1
280
     0
281
     0
  0
CLASS
  1
NPOCOLLECTION
  2
AcDbImpNonPersistentObjectsCollection
  3
ObjectDBX Classes
 90
     1153
 91
        1
280
     0
281
     0
  0
CLASS
  1
ACMSTANDARDANSI
  2
AcmStandardANSI
  3
"Amdt_StdImp|Product Description: AutoCAD Mechanical|Company: Autodesk, Inc."
 90
     1024
 91
        1
280
     0
281
     0
  0
CLASS
  1
ACMSURFSTANDARDANSI
  2
AcmSurfTextStdANSI
  3
"Amdt_StdImp|Product Description: AutoCAD Mechanical|Company: Autodesk, Inc."
 90
     1024
 91
        1
280
     0
281
     0
  0
CLASS
  1
ACMFCFSTANDARDANSI
  2
AcmFCFStdANSI
  3
"Amdt_StdImp|Product Description: AutoCAD Mechanical|Company: Autodesk, Inc."
 90
     1024
 91
        1
280
     0
281
     0
  0
CLASS
  1
ACMWELDSTANDARDANSI
  2
AcmWeldingStdANSI
  3
"Amdt_StdImp|Product Description: AutoCAD Mechanical|Company: Autodesk, Inc."
 90
     1024
 91
        1
280
     0
281
     0
  0
CLASS
  1
ACMIDSTANDARDANSI
  2
AcmIdStdANSI
  3
"Amdt_StdImp|Product Description: AutoCAD Mechanical|Company: Autodesk, Inc."
 90
     1024
 91
        1
280
     0
281
     0
  0
CLASS
  1
ACMDATUMSTANDARDANSI
  2
AcmDatumStdANSI
  3
"Amdt_StdImp|Product Description: AutoCAD Mechanical|Company: Autodesk, Inc."
 90
     1024
 91
        1
280
     0
281
     0
  0
CLASS
  1
ACMBOMSTANDARDANSI
  2
AcmBOMStdANSI
  3
"Amdt_StdImp|Product Description: AutoCAD Mechanical|Company: Autodesk, Inc."
 90
     1024
 91
        1
280
     0
281
     0
  0
CLASS
  1
ACMDETAILSTANDARDANSI
  2
AmdtDetailSymStdANSI
  3
"Amdt_StdImp|Product Description: AutoCAD Mechanical|Company: Autodesk, Inc."
 90
     1024
 91
        1
280
     0
281
     0
  0
CLASS
  1
ACMSECTIONSTANDARDANSI
  2
AmdtSectionSymStdANSI
  3
"Amdt_StdImp|Product Description: AutoCAD Mechanical|Company: Autodesk, Inc."
 90
     1024
 91
        1
280
     0
281
     0
  0
CLASS
  1
ACMCENTERLINESTANDARDANSI
  2
AmdtCenterLineStdANSI
  3
"Amdt_StdImp|Product Description: AutoCAD Mechanical|Company: Autodesk, Inc."
 90
     1024
 91
        1
280
     0
281
     0
  0
CLASS
  1
ACMTHREADLINESTANDARDANSI
  2
AmdtThreadLineStdANSI
  3
"Amdt_StdImp|Product Description: AutoCAD Mechanical|Company: Autodesk, Inc."
 90
     1024
 91
        1
280
     0
281
     0
  0
CLASS
  1
ACMNOTESTANDARDANSI
  2
AmdtNoteStdANSI
  3
"Amdt_StdImp|Product Description: AutoCAD Mechanical|Company: Autodesk, Inc."
 90
     1024
 91
        1
280
     0
281
     0
  0
CLASS
  1
ACMTAPERSTANDARDANSI
  2
AcmTaperStdANSI
  3
"Amdt_StdImp|Product Description: AutoCAD Mechanical|Company: Autodesk, Inc."
 90
     1024
 91
        1
280
     0
281
     0
  0
CLASS
  1
ACMANOOTATIONVIEWSTANDARDANSI
  2
AmdtAnViewStdANSI
  3
"Amdt_StdImp|Product Description: AutoCAD Mechanical|Company: Autodesk, Inc."
 90
     1024
 91
        1
280
     0
281
     0
  0
CLASS
  1
ACAMGLAYSTD
  2
AcAmgLayStd
  3
"AmgLay|Product Description: AutoCAD Mechanical|Company: Autodesk, Inc."
 90
     1024
 91
        1
280
     0
281
     0
  0
CLASS
  1
ACAMGDIMSTD
  2
AcAmgDimStd
  3
"AmgDim|Product Description: AutoCAD Mechanical|Company: Autodesk, Inc."
 90
     1024
 91
        1
280
     0
281
     0
  0
CLASS
  1
AMGOBJPROPCFG
  2
AmgObjPropCfg
  3
"AmgLay|Product Description: AutoCAD Mechanical|Company: Autodesk, Inc."
 90
     1025
 91
        1
280
     0
281
     0
  0
CLASS
  1
ACAMGHOLECHARTSTDANSI
  2
AcAmgHoleChartStdANSI
  3
AmgDim|Product Description: AutoCAD Mechanical|Company: Autodesk, Inc.
 90
     1024
 91
        1
280
     0
281
     0
  0
CLASS
  1
ACAMGTITLESTD
  2
AcAmgTitleStd
  3
"AmgTitle|Product Description: AutoCAD Mechanical|Company: Autodesk, Inc."
 90
     4095
 91
        1
280
     0
281
     0
  0
CLASS
  1
AMDTNOTETEMPLATEDB
  2
AmdtNoteTemplateDB
  3
AcmSymBB|Product Description: AutoCAD Mechanical|Company: Autodesk, Inc.
 90
     1024
 91
        6
280
     0
281
     0
  0
CLASS
  1
ACAMGFILTERDAT
  2
AcAmgFilterDat
  3
"AcadM|Product Description: AutoCAD Mechanical|Company: Autodesk, Inc."
 90
     1024
 91
        6
280
     0
281
     0
  0
ENDSEC
  0
SECTION
  2
TABLES
  0
TABLE
  2
VPORT
  5
8
330
0
100
AcDbSymbolTable
 70
     1
  0
VPORT
  5
5F
330
8
100
AcDbSymbolTableRecord
100
AcDbViewportTableRecord
  2
*Active
 70
     0
 10
0.0
 20
0.0
 11
1.0
 21
1.0
 12
55.0
 22
44.09011850900729
 13
0.0
 23
0.0
 14
1.0
 24
1.0
 15
0.0
 25
0.0
 16
0.0
 26
0.0
 36
1.0
 17
0.0
 27
0.0
 37
0.0
 40
89.14571406565707
 41
2.159049360146252
 42
50.0
 43
0.0
 44
0.0
 50
0.0
 51
0.0
 71
     0
 72
   100
 73
     1
 74
     1
 75
     0
 76
     0
 77
     0
 78
     0
281
     0
 65
     0
110
0.0
120
0.0
130
0.0
111
1.0
121
0.0
131
0.0
112
0.0
122
1.0
132
0.0
 79
     0
146
0.0
348
2F
 60
     3
 61
     5
292
     1
282
     1
141
0.0
142
0.0
 63
   250
421
  3355443
  0
ENDTAB
  0
TABLE
  2
LTYPE
  5
5
330
0
100
AcDbSymbolTable
 70
    70
  0
LTYPE
  5
63
330
5
100
AcDbSymbolTableRecord
100
AcDbLinetypeTableRecord
  2
ByBlock
 70
     0
  3

 72
    65
 73
     0
 40
0.0
  0
LTYPE
  5
64
330
5
100
AcDbSymbolTableRecord
100
AcDbLinetypeTableRecord
  2
ByLayer
 70
     0
  3

 72
    65
 73
     0
 40
0.0
  0
LTYPE
  5
65
330
5
100
AcDbSymbolTableRecord
100
AcDbLinetypeTableRecord
  2
Continuous
 70
     0
  3
Solid line
 72
    65
 73
     0
 40
0.0
  0
LTYPE
  5
99
330
5
100
AcDbSymbolTableRecord
100
AcDbLinetypeTableRecord
  2
CENTER
 70
     0
  3
Center ____ _ ____ _ ____ _ ____ _ ____ _ ____
 72
    65
 73
     4
 40
2.0
 49
1.25
 74
     0
 49
-0.25
 74
     0
 49
0.25
 74
     0
 49
-0.25
 74
     0
  0
LTYPE
  5
9A
330
5
100
AcDbSymbolTableRecord
100
AcDbLinetypeTableRecord
  2
CENTER2
 70
     0
  3
Center (.5x) ___ _ ___ _ ___ _ ___ _ ___ _ ___
 72
    65
 73
     4
 40
1.125
 49
0.75
 74
     0
 49
-0.125
 74
     0
 49
0.125
 74
     0
 49
-0.125
 74
     0
  0
LTYPE
  5
A7
330
5
100
AcDbSymbolTableRecord
100
AcDbLinetypeTableRecord
  2
HIDDEN
 70
     0
  3
Hidden __ __ __ __ __ __ __ __ __ __ __ __ __ _
 72
    65
 73
     2
 40
0.375
 49
0.25
 74
     0
 49
-0.125
 74
     0
  0
LTYPE
  5
A8
330
5
100
AcDbSymbolTableRecord
100
AcDbLinetypeTableRecord
  2
HIDDEN2
 70
     0
  3
Hidden (.5x) _ _ _ _ _ _ _ _ _ _ _ _ _ _ _ _ _
 72
    65
 73
     2
 40
0.1875
 49
0.125
 74
     0
 49
-0.0625
 74
     0
  0
LTYPE
  5
AB
330
5
100
AcDbSymbolTableRecord
100
AcDbLinetypeTableRecord
  2
PHANTOM2
 70
     0
  3
Phantom (.5x) ___ _ _ ___ _ _ ___ _ _ ___ _ _
 72
    65
 73
     6
 40
1.25
 49
0.625
 74
     0
 49
-0.125
 74
     0
 49
0.125
 74
     0
 49
-0.125
 74
     0
 49
0.125
 74
     0
 49
-0.125
 74
     0
  0
LTYPE
  5
DB2
330
5
100
AcDbSymbolTableRecord
100
AcDbLinetypeTableRecord
  2
Amconstr
 70
     0
  3
_______________________
 72
    65
 73
     2
 40
9999.0
 49
9999.0
 74
     0
 49
0.0
 74
     0
  0
LTYPE
  5
DB8
330
5
100
AcDbSymbolTableRecord
100
AcDbLinetypeTableRecord
  2
Amzigzag2
 70
     0
  3
/\/-/\/-/\/-/\/-/\/-/\/
 72
    65
 73
     2
 40
0.4401
 49
0.0001
 74
     4
 75
   136
340
DB6
 46
0.0016
 50
0.0
 44
0.0
 45
0.0
 49
-0.4400000000000001
 74
     0
  0
LTYPE
  5
DC6
330
5
100
AcDbSymbolTableRecord
100
AcDbLinetypeTableRecord
  2
ACANSTGB
 70
     0
  3
__ . . __ . .
 72
    65
 73
     6
 40
0.35433070866
 49
0.15748031496
 74
     0
 49
-0.03937007874
 74
     0
 49
0.03937007874
 74
     0
 49
-0.03937007874
 74
     0
 49
0.03937007874
 74
     0
 49
-0.03937007874
 74
     0
  0
LTYPE
  5
DC7
330
5
100
AcDbSymbolTableRecord
100
AcDbLinetypeTableRecord
  2
ACANSTGL
 70
     0
  3
_ _ _ _ _
 72
    65
 73
     2
 40
0.11811023622
 49
0.07874015748
 74
     0
 49
-0.03937007874
 74
     0
  0
ENDTAB
  0
TABLE
  2
LAYER
  5
2
330
0
100
AcDbSymbolTable
 70
     9
  0
LAYER
  5
5C
330
2
100
AcDbSymbolTableRecord
100
AcDbLayerTableRecord
  2
0
 70
     0
 62
     7
  6
Continuous
370
    -3
390
F
347
21
  0
LAYER
  5
CC
330
2
100
AcDbSymbolTableRecord
100
AcDbLayerTableRecord
  2
Dimension (ANSI)
 70
     0
 62
     7
  6
Continuous
370
    25
390
F
347
21
  0
LAYER
  5
D7
330
2
100
AcDbSymbolTableRecord
100
AcDbLayerTableRecord
  2
Visible (ANSI)
 70
     0
 62
     7
  6
Continuous
370
    50
390
F
347
21
  0
ENDTAB
  0
TABLE
  2
STYLE
  5
3
330
0
100
AcDbSymbolTable
 70
    18
  0
STYLE
  5
5D
330
3
100
AcDbSymbolTableRecord
100
AcDbTextStyleTableRecord
  2
Standard
 70
     0
 40
0.0
 41
1.0
 50
0.0
 71
     0
 42
0.2
  3
txt
  4

  0
STYLE
  5
DB6
330
3
100
AcDbSymbolTableRecord
100
AcDbTextStyleTableRecord
  2

 70
     1
 40
0.0
 41
1.0
 50
0.0
 71
     0
 42
0.2
  3
genltshp.shx
  4

  0
STYLE
  5
DC5
330
3
100
AcDbSymbolTableRecord
100
AcDbTextStyleTableRecord
  2
ACANSGDT
 70
     0
 40
0.0
 41
1.0
 50
0.0
 71
     0
 42
0.2
  3
amgdt.shx
  4

  0
ENDTAB
  0
TABLE
  2
VIEW
  5
6
330
0
100
AcDbSymbolTable
 70
     0
  0
ENDTAB
  0
TABLE
  2
UCS
  5
7
330
0
100
AcDbSymbolTable
 70
     0
  0
ENDTAB
  0
TABLE
  2
APPID
  5
9
330
0
100
AcDbSymbolTable
 70
    14
  0
APPID
  5
5E
330
9
100
AcDbSymbolTableRecord
100
AcDbRegAppTableRecord
  2
ACAD
 70
     0
  0
APPID
  5
66
330
9
100
AcDbSymbolTableRecord
100
AcDbRegAppTableRecord
  2
AcadAnnotative
 70
     0
  0
APPID
  5
70
330
9
100
AcDbSymbolTableRecord
100
AcDbRegAppTableRecord
  2
ACAD_MLEADERVER
 70
     0
  0
APPID
  5
189
330
9
100
AcDbSymbolTableRecord
100
AcDbRegAppTableRecord
  2
AcadAnnoPO
 70
     0
  0
APPID
  5
4BA
330
9
100
AcDbSymbolTableRecord
100
AcDbRegAppTableRecord
  2
ACAD_DSTYLE_DIMRADIAL_EXTENSION
 70
     0
  0
APPID
  5
C37
330
9
100
AcDbSymbolTableRecord
100
AcDbRegAppTableRecord
  2
ACAD_DSTYLE_DIMANGULAR_EXTENSION
 70
     0
  0
APPID
  5
D3A
330
9
100
AcDbSymbolTableRecord
100
AcDbRegAppTableRecord
  2
MCAD_NO_VIS
 70
     0
  0
APPID
  5
D3B
330
9
100
AcDbSymbolTableRecord
100
AcDbRegAppTableRecord
  2
ACAD_TEMP_GRAPHIC
 70
     0
  0
APPID
  5
D6A
330
9
100
AcDbSymbolTableRecord
100
AcDbRegAppTableRecord
  2
AD_DRAW
 70
     0
  0
APPID
  5
D6D
330
9
100
AcDbSymbolTableRecord
100
AcDbRegAppTableRecord
  2
ACATTRIBSERVICES
 70
     0
  0
APPID
  5
D8E
330
9
100
AcDbSymbolTableRecord
100
AcDbRegAppTableRecord
  2
DESIGNERASSEMBLIES
 70
     0
  0
APPID
  5
D94
330
9
100
AcDbSymbolTableRecord
100
AcDbRegAppTableRecord
  2
ACADM_DIM_EDIT
 70
     0
  0
APPID
  5
D95
330
9
100
AcDbSymbolTableRecord
100
AcDbRegAppTableRecord
  2
AMDT_DM_ADJ
 70
     0
  0
APPID
  5
EBB
330
9
100
AcDbSymbolTableRecord
100
AcDbRegAppTableRecord
  2
ACAD_EXEMPT_FROM_CAD_STANDARDS
 70
     0
  0
ENDTAB
  0
TABLE
  2
DIMSTYLE
  5
A
330
0
100
AcDbSymbolTable
 70
    33
100
AcDbDimStyleTable
 71
     1
340
DAD
  0
DIMSTYLE
105
DAD
102
{ACAD_REACTORS
330
D9D
102
}
330
A
100
AcDbSymbolTableRecord
100
AcDbDimStyleTableRecord
  2
AM_ANSI
 70
     0
  4
mm
 41
0.12
 42
0.05
 43
0.5
 44
0.1
 47
0.1
 48
0.1
 78
     7
 79
     2
 90
     1
140
0.12
141
0.0
146
0.71
147
0.06
176
   256
177
   256
178
     2
274
     4
284
     7
340
5D
345
63
346
63
347
63
371
    -1
372
    -1
  0
DIMSTYLE
105
DB9
330
A
100
AcDbSymbolTableRecord
100
AcDbDimStyleTableRecord
  2
AM_ANSI$3
 70
     0
  4
mm
 41
0.12
 42
0.05
 43
0.5
 44
0.1
 47
0.1
 48
0.1
 78
     7
 79
     2
 90
     1
140
0.12
141
0.0
146
0.71
147
0.06
176
   256
177
   256
178
     2
274
     4
284
     7
288
     1
289
     0
340
5D
345
63
346
63
347
63
371
    -1
372
    -1
  0
DIMSTYLE
105
DBA
330
A
100
AcDbSymbolTableRecord
100
AcDbDimStyleTableRecord
  2
AM_ANSI$4
 70
     0
  4
mm
 41
0.12
 42
0.05
 43
0.5
 44
0.1
 47
0.1
 48
0.1
 78
     7
 79
     2
 90
     1
140
0.12
141
0.0
146
0.71
147
0.06
176
   256
177
   256
178
     2
274
     4
284
     7
340
5D
345
63
346
63
347
63
371
    -1
372
    -1
  0
DIMSTYLE
105
DBB
330
A
100
AcDbSymbolTableRecord
100
AcDbDimStyleTableRecord
  2
AM_ANSI$7
 70
     0
  4
mm
 41
0.12
 42
0.05
 43
0.5
 44
0.1
 47
0.1
 48
0.1
 78
     7
 79
     2
 90
     1
140
0.12
141
0.0
146
0.71
147
0.06
176
   256
177
   256
178
     2
274
     4
284
     7
340
5D
345
63
346
63
347
63
371
    -1
372
    -1
  0
DIMSTYLE
105
DBC
330
A
100
AcDbSymbolTableRecord
100
AcDbDimStyleTableRecord
  2
AM_ANSI$SF
 70
     0
  4
mm
 41
0.12
 42
0.05
 43
0.5
 44
0.1
 47
0.1
 48
0.1
 75
     1
 76
     1
 78
     7
 79
     2
 90
     1
140
0.12
141
0.0
146
0.71
147
0.06
176
   256
177
   256
178
     2
274
     4
284
     7
340
5D
345
63
346
63
347
63
371
    -1
372
    -1
  0
DIMSTYLE
105
DC1
330
A
100
AcDbSymbolTableRecord
100
AcDbDimStyleTableRecord
  2
AM_ANSI$SH
 70
     0
  4
mm
 41
0.12
 42
0.05
 43
0.5
 44
0.1
 47
0.1
 48
0.1
 75
     1
 76
     1
 78
     7
 79
     2
 90
     1
140
0.12
141
0.0
146
0.71
147
0.06
173
     1
176
   256
177
   256
178
     2
274
     4
284
     7
340
5D
343
DBD
345
63
346
63
347
63
371
    -1
372
    -1
  0
ENDTAB
  0
TABLE
  2
BLOCK_RECORD
  5
1
330
0
100
AcDbSymbolTable
 70
    23
  0
BLOCK_RECORD
  5
75
330
1
100
AcDbSymbolTableRecord
100
AcDbBlockTableRecord
  2
*Model_Space
340
78
 70
     0
280
     1
281
     0
  0
BLOCK_RECORD
  5
71
330
1
100
AcDbSymbolTableRecord
100
AcDbBlockTableRecord
  2
*Paper_Space
340
74
 70
     0
280
     1
281
     0
  0
BLOCK_RECORD
  5
79
330
1
100
AcDbSymbolTableRecord
100
AcDbBlockTableRecord
  2
*Paper_Space0
340
7C
 70
     0
280
     1
281
     0
  0
BLOCK_RECORD
  5
DBD
330
1
100
AcDbSymbolTableRecord
100
AcDbBlockTableRecord
  2
GENAXEH
340
0
 70
     0
280
     1
281
     0
  0
BLOCK_RECORD
  5
DD5
330
1
100
AcDbSymbolTableRecord
100
AcDbBlockTableRecord
  2
PBS-5-SIDE VIEW
340
0
310
2800000020000000200000000100080000000000000400000000000000000000000000000000000000000000000080000080000000808000800000008000800080800000C0C0C000C0DCC000F0CAA6000020400000206000002080000020A0000020C0000020E00000400000004020000040400000406000004080000040A0
310
000040C0000040E00000600000006020000060400000606000006080000060A0000060C0000060E00000800000008020000080400000806000008080000080A0000080C0000080E00000A0000000A0200000A0400000A0600000A0800000A0A00000A0C00000A0E00000C0000000C0200000C0400000C0600000C0800000C0
310
A00000C0C00000C0E00000E0000000E0200000E0400000E0600000E0800000E0A00000E0C00000E0E00040000000400020004000400040006000400080004000A0004000C0004000E00040200000402020004020400040206000402080004020A0004020C0004020E000404000004040200040404000404060004040800040
310
40A0004040C0004040E00040600000406020004060400040606000406080004060A0004060C0004060E00040800000408020004080400040806000408080004080A0004080C0004080E00040A0000040A0200040A0400040A0600040A0800040A0A00040A0C00040A0E00040C0000040C0200040C0400040C0600040C08000
310
40C0A00040C0C00040C0E00040E0000040E0200040E0400040E0600040E0800040E0A00040E0C00040E0E00080000000800020008000400080006000800080008000A0008000C0008000E00080200000802020008020400080206000802080008020A0008020C0008020E00080400000804020008040400080406000804080
310
008040A0008040C0008040E00080600000806020008060400080606000806080008060A0008060C0008060E00080800000808020008080400080806000808080008080A0008080C0008080E00080A0000080A0200080A0400080A0600080A0800080A0A00080A0C00080A0E00080C0000080C0200080C0400080C0600080C0
310
800080C0A00080C0C00080C0E00080E0000080E0200080E0400080E0600080E0800080E0A00080E0C00080E0E000C0000000C0002000C0004000C0006000C0008000C000A000C000C000C000E000C0200000C0202000C0204000C0206000C0208000C020A000C020C000C020E000C0400000C0402000C0404000C0406000C0
310
408000C040A000C040C000C040E000C0600000C0602000C0604000C0606000C0608000C060A000C060C000C060E000C0800000C0802000C0804000C0806000C0808000C080A000C080C000C080E000C0A00000C0A02000C0A04000C0A06000C0A08000C0A0A000C0A0C000C0A0E000C0C00000C0C02000C0C04000C0C06000
310
C0C08000C0C0A000F0FBFF00A4A0A000808080000000FF0000FF000000FFFF00FF000000FF00FF00FFFF0000FFFFFF000000000000000000000000000000000000000000000000000000000000000000000000000000FFFFFFFFFFFFFFFFFFFFFFFFFFFFFFFFFFFFFFFF000000000000000000000000FFFFFFFFFFFFFFFFFF
310
FFFFFFFFFFFFFFFFFFFFFF0000000000000000000000000000000000000000FF0000FF00000000000000000000000000000000000000000000000000000000FF0000FF00000000000000000000000000000000000000000000000000000000FF0000FF00000000000000000000000000000000000000000000000000000000
310
FF0000FF00000000000000000000000000000000000000000000000000000000FF0000FF00000000000000000000000000000000000000000000000000000000FF0000FF00000000000000000000000000000000000000000000000000000000FF0000FF000000000000000000000000000000000000000000000000000000
310
00FF0000FF00000000000000000000000000000000000000000000000000000000FF0000FF00000000000000000000000000000000000000000000000000000000FF0000FF00000000000000000000000000000000000000000000000000000000FF0000FF0000000000000000000000000000000000000000000000000000
310
0000FF0000FF00000000000000000000000000000000000000000000000000000000FF0000FF00000000000000000000000000000000000000000000000000000000FF0000FF00000000000000000000000000000000000000000000000000000000FF0000FF00000000000000000000000000000000000000000000000000
310
000000FF0000FF00000000000000000000000000000000000000000000000000000000FF0000FF00000000000000000000000000000000000000000000000000000000FF0000FF00000000000000000000000000000000000000000000000000000000FF0000FF000000000000000000000000000000000000000000000000
310
00000000FF0000FF00000000000000000000000000000000000000000000000000000000FF0000FF00000000000000000000000000000000000000000000000000000000FF0000FF00000000000000000000000000000000000000000000000000000000FF0000FF00000000000000000000000000000000000000FFFFFFFF
310
FFFFFFFFFFFFFFFFFFFFFFFFFFFFFFFFFFFF000000000000000000FF0000FFFFFFFFFFFFFFFFFFFFFFFFFFFFFFFFFFFF0000FF0000000000000000FF00000000FFFF00000000FFFF00000000FFFF00000000FF000000000000000000FFFF0000FFFF00000000FFFF00000000FFFF0000FFFF000000000000000000000000FF
310
FFFFFFFFFFFFFFFFFFFFFFFFFFFFFFFFFF000000000000000000000000000000000000000000000000000000000000000000000000000000
102
{BLKREFS
331
E19
102
}
 70
     1
280
     1
281
     0
  0
BLOCK_RECORD
  5
E1A
330
1
100
AcDbSymbolTableRecord
100
AcDbBlockTableRecord
  2
PBS-5-FRONT VIEW
340
0
310
2800000020000000200000000100080000000000000400000000000000000000000000000000000000000000000080000080000000808000800000008000800080800000C0C0C000C0DCC000F0CAA6000020400000206000002080000020A0000020C0000020E00000400000004020000040400000406000004080000040A0
310
000040C0000040E00000600000006020000060400000606000006080000060A0000060C0000060E00000800000008020000080400000806000008080000080A0000080C0000080E00000A0000000A0200000A0400000A0600000A0800000A0A00000A0C00000A0E00000C0000000C0200000C0400000C0600000C0800000C0
310
A00000C0C00000C0E00000E0000000E0200000E0400000E0600000E0800000E0A00000E0C00000E0E00040000000400020004000400040006000400080004000A0004000C0004000E00040200000402020004020400040206000402080004020A0004020C0004020E000404000004040200040404000404060004040800040
310
40A0004040C0004040E00040600000406020004060400040606000406080004060A0004060C0004060E00040800000408020004080400040806000408080004080A0004080C0004080E00040A0000040A0200040A0400040A0600040A0800040A0A00040A0C00040A0E00040C0000040C0200040C0400040C0600040C08000
310
40C0A00040C0C00040C0E00040E0000040E0200040E0400040E0600040E0800040E0A00040E0C00040E0E00080000000800020008000400080006000800080008000A0008000C0008000E00080200000802020008020400080206000802080008020A0008020C0008020E00080400000804020008040400080406000804080
310
008040A0008040C0008040E00080600000806020008060400080606000806080008060A0008060C0008060E00080800000808020008080400080806000808080008080A0008080C0008080E00080A0000080A0200080A0400080A0600080A0800080A0A00080A0C00080A0E00080C0000080C0200080C0400080C0600080C0
310
800080C0A00080C0C00080C0E00080E0000080E0200080E0400080E0600080E0800080E0A00080E0C00080E0E000C0000000C0002000C0004000C0006000C0008000C000A000C000C000C000E000C0200000C0202000C0204000C0206000C0208000C020A000C020C000C020E000C0400000C0402000C0404000C0406000C0
310
408000C040A000C040C000C040E000C0600000C0602000C0604000C0606000C0608000C060A000C060C000C060E000C0800000C0802000C0804000C0806000C0808000C080A000C080C000C080E000C0A00000C0A02000C0A04000C0A06000C0A08000C0A0A000C0A0C000C0A0E000C0C00000C0C02000C0C04000C0C06000
310
C0C08000C0C0A000F0FBFF00A4A0A000808080000000FF0000FF000000FFFF00FF000000FF00FF00FFFF0000FFFFFF0000000000000000000000000000000000000000000000000000000000000000000000000000000000000000000000000000000000000000000000000000000000000000000000000000000000000000
310
00000000000000000000000000000000000000000000000000000000000000000000000000000000000000000000000000000000000000000000000000000000000000000000000000000000000000000000000000000000000000000000000000000000000000000000000000000000000000000000000000000000000000
310
00000000000000000000000000000000000000000000000000000000000000000000000000000000000000000000000000000000000000000000000000000000000000000000000000000000000000000000000000000000000000000000000000000000000000000000000000000000000000000000000000000000000000
310
00000000000000000000000000000000000000000000FFFF00000000000000000000000000000000000000000000FFFF000000000000FFFF00000000000000000000000000000000000000000000FFFF000000000000FFFF00000000000000000000000000000000000000000000FFFF000000000000FFFF00000000000000
310
000000000000000000000000000000FFFF000000000000FFFF00000000000000000000000000000000000000000000FFFF000000000000FFFF00000000000000000000000000000000000000000000FFFF000000000000FFFF00000000000000000000000000000000000000000000FFFF000000000000FFFFFFFFFFFFFFFF
310
FFFFFFFFFFFFFFFFFFFFFFFFFFFFFFFFFFFF00000000FFFFFFFFFFFFFFFFFFFFFFFFFFFFFFFFFFFFFFFFFFFFFFFFFFFFFFFFFFFF0000FFFFFFFFFFFFFFFFFFFFFFFFFFFFFFFFFFFFFFFFFFFFFFFFFFFFFFFFFFFF00000000000000000000000000000000000000000000000000000000000000000000000000000000000000
310
00000000000000000000000000000000000000000000000000000000000000000000000000000000000000000000000000000000000000000000000000000000000000000000000000000000000000000000000000000000000000000000000000000000000000000000000000000000000000000000000000000000000000
310
00000000000000000000000000000000000000000000000000000000000000000000000000000000000000000000000000000000000000000000000000000000000000000000000000000000000000000000000000000000000000000000000000000000000000000000000000000000000000000000000000000000000000
310
0000000000000000000000000000000000000000000000000000000000000000000000000000000000000000000000000000000000000000
102
{BLKREFS
331
E72
102
}
 70
     1
280
     1
281
     0
  0
BLOCK_RECORD
  5
E73
330
1
100
AcDbSymbolTableRecord
100
AcDbBlockTableRecord
  2
PBS-5-TOP VIEW
340
0
310
2800000020000000200000000100080000000000000400000000000000000000000000000000000000000000000080000080000000808000800000008000800080800000C0C0C000C0DCC000F0CAA6000020400000206000002080000020A0000020C0000020E00000400000004020000040400000406000004080000040A0
310
000040C0000040E00000600000006020000060400000606000006080000060A0000060C0000060E00000800000008020000080400000806000008080000080A0000080C0000080E00000A0000000A0200000A0400000A0600000A0800000A0A00000A0C00000A0E00000C0000000C0200000C0400000C0600000C0800000C0
310
A00000C0C00000C0E00000E0000000E0200000E0400000E0600000E0800000E0A00000E0C00000E0E00040000000400020004000400040006000400080004000A0004000C0004000E00040200000402020004020400040206000402080004020A0004020C0004020E000404000004040200040404000404060004040800040
310
40A0004040C0004040E00040600000406020004060400040606000406080004060A0004060C0004060E00040800000408020004080400040806000408080004080A0004080C0004080E00040A0000040A0200040A0400040A0600040A0800040A0A00040A0C00040A0E00040C0000040C0200040C0400040C0600040C08000
310
40C0A00040C0C00040C0E00040E0000040E0200040E0400040E0600040E0800040E0A00040E0C00040E0E00080000000800020008000400080006000800080008000A0008000C0008000E00080200000802020008020400080206000802080008020A0008020C0008020E00080400000804020008040400080406000804080
310
008040A0008040C0008040E00080600000806020008060400080606000806080008060A0008060C0008060E00080800000808020008080400080806000808080008080A0008080C0008080E00080A0000080A0200080A0400080A0600080A0800080A0A00080A0C00080A0E00080C0000080C0200080C0400080C0600080C0
310
800080C0A00080C0C00080C0E00080E0000080E0200080E0400080E0600080E0800080E0A00080E0C00080E0E000C0000000C0002000C0004000C0006000C0008000C000A000C000C000C000E000C0200000C0202000C0204000C0206000C0208000C020A000C020C000C020E000C0400000C0402000C0404000C0406000C0
310
408000C040A000C040C000C040E000C0600000C0602000C0604000C0606000C0608000C060A000C060C000C060E000C0800000C0802000C0804000C0806000C0808000C080A000C080C000C080E000C0A00000C0A02000C0A04000C0A06000C0A08000C0A0A000C0A0C000C0A0E000C0C00000C0C02000C0C04000C0C06000
310
C0C08000C0C0A000F0FBFF00A4A0A000808080000000FF0000FF000000FFFF00FF000000FF00FF00FFFF0000FFFFFF0000000000000000000000000000000000000000000000000000000000000000000000000000000000000000000000000000000000000000000000000000000000000000000000000000000000000000
310
00000000000000000000000000000000000000000000000000000000000000000000000000000000000000000000000000000000000000000000000000000000000000000000000000000000000000000000000000000000000000000000000000000000000000000000000000000000000000000000000000000000000000
310
00000000000000000000000000000000000000000000000000000000000000000000000000000000000000000000000000000000000000000000000000000000000000000000000000000000000000000000000000000000000000000000000000000000000000000000000000000000000000000000000000000000000000
310
00000000000000000000000000000000000000000000000000000000000000000000000000000000000000000000000000000000FFFFFFFFFFFFFFFFFFFFFFFFFFFFFFFFFFFFFFFFFFFFFFFFFFFFFFFFFFFF0000FF00000000000000000000000000000000000000000000000000000000FF0000FFFFFFFFFFFFFFFFFFFFFF
310
FFFFFFFFFFFFFFFFFFFFFFFFFFFFFFFFFFFFFF0000FFFFFFFFFFFFFFFFFFFFFFFFFFFFFFFFFFFFFFFFFFFFFFFFFFFFFFFFFFFF0000FFFFFFFFFFFFFFFFFFFFFFFFFFFFFFFFFFFFFFFFFFFFFFFFFFFFFFFFFFFF0000FFFFFFFFFFFFFFFFFFFFFFFFFFFFFFFFFFFFFFFFFFFFFFFFFFFFFFFFFFFF0000FF000000000000000000
310
00000000000000000000000000000000000000FF0000FFFFFFFFFFFFFFFFFFFFFFFFFFFFFFFFFFFFFFFFFFFFFFFFFFFFFFFFFFFF000000000000000000000000000000000000000000000000000000000000000000000000000000000000000000000000000000000000000000000000000000000000000000000000000000
310
00000000000000000000000000000000000000000000000000000000000000000000000000000000000000000000000000000000000000000000000000000000000000000000000000000000000000000000000000000000000000000000000000000000000000000000000000000000000000000000000000000000000000
310
00000000000000000000000000000000000000000000000000000000000000000000000000000000000000000000000000000000000000000000000000000000000000000000000000000000000000000000000000000000000000000000000000000000000000000000000000000000000000000000000000000000000000
310
0000000000000000000000000000000000000000000000000000000000000000000000000000000000000000000000000000000000000000
102
{BLKREFS
331
EBA
102
}
 70
     1
280
     1
281
     0
  0
ENDTAB
  0
ENDSEC
  0
SECTION
  2
BLOCKS
  0
BLOCK
  5
76
330
75
100
AcDbEntity
  8
0
100
AcDbBlockBegin
  2
*Model_Space
 70
     0
 10
0.0
 20
0.0
 30
0.0
  3
*Model_Space
  1

  0
ENDBLK
  5
77
330
75
100
AcDbEntity
  8
0
100
AcDbBlockEnd
  0
BLOCK
  5
72
330
71
100
AcDbEntity
 67
     1
  8
0
100
AcDbBlockBegin
  2
*Paper_Space
 70
     0
 10
0.0
 20
0.0
 30
0.0
  3
*Paper_Space
  1

  0
ENDBLK
  5
73
330
71
100
AcDbEntity
 67
     1
  8
0
100
AcDbBlockEnd
  0
BLOCK
  5
7A
330
79
100
AcDbEntity
 67
     1
  8
0
100
AcDbBlockBegin
  2
*Paper_Space0
 70
     0
 10
0.0
 20
0.0
 30
0.0
  3
*Paper_Space0
  1

  0
ENDBLK
  5
7B
330
79
100
AcDbEntity
 67
     1
  8
0
100
AcDbBlockEnd
  0
BLOCK
  5
DBF
330
DBD
100
AcDbEntity
  8
0
100
AcDbBlockBegin
  2
GENAXEH
 70
     0
 10
0.0
 20
0.0
 30
0.0
  3
GENAXEH
  1

  0
LINE
  5
DBE
330
DBD
100
AcDbEntity
  8
0
100
AcDbLine
 10
-1.0
 20
0.0
 30
0.0
 11
1.0
 21
0.0
 31
0.0
  0
ENDBLK
  5
DC0
330
DBD
100
AcDbEntity
  8
0
100
AcDbBlockEnd
  0
BLOCK
  5
DD6
330
DD5
100
AcDbEntity
  8
0
100
AcDbBlockBegin
  2
PBS-5-SIDE VIEW
 70
     0
 10
0.0
 20
0.0
 30
0.0
  3
PBS-5-SIDE VIEW
  1

  0
ARC
  5
DD8
330
DD5
100
AcDbEntity
  8
Visible (ANSI)
100
AcDbCircle
 10
18.10691489216314
 20
47.77734392544997
 30
0.0
 40
0.2499999999999987
100
AcDbArc
 50
0.0
 51
34.81793259684201
  0
LINE
  5
DD9
330
DD5
100
AcDbEntity
  8
Visible (ANSI)
100
AcDbLine
 10
18.35691489216314
 20
47.77734392544997
 30
0.0
 11
18.35691489216315
 21
46.27734392544996
 31
0.0
  0
ARC
  5
DDA
330
DD5
100
AcDbEntity
  8
Visible (ANSI)
100
AcDbCircle
 10
18.10691489216314
 20
46.27734392544996
 30
0.0
 40
0.2500000000000003
100
AcDbArc
 50
300.0000000000018
 51
0.0
  0
LINE
  5
DDB
330
DD5
100
AcDbEntity
  8
Visible (ANSI)
100
AcDbLine
 10
11.26939707861328
 20
47.59892057390307
 30
0.0
 11
11.02319514036023
 21
47.55550852948633
 31
0.0
  0
LINE
  5
DDC
330
DD5
100
AcDbEntity
  8
Visible (ANSI)
100
AcDbLine
 10
11.00873779968042
 20
47.63750018284375
 30
0.0
 11
11.02319514036022
 21
47.55550852948633
 31
0.0
  0
LINE
  5
DDD
330
DD5
100
AcDbEntity
  8
Visible (ANSI)
100
AcDbLine
 10
23.69063464396606
 20
47.55550852948635
 30
0.0
 11
23.75575271059116
 21
47.92481143686592
 31
0.0
  0
LINE
  5
DDE
330
DD5
100
AcDbEntity
  8
Visible (ANSI)
100
AcDbLine
 10
23.62383379231312
 20
47.94807230142422
 30
0.0
 11
23.75575271059116
 21
47.92481143686592
 31
0.0
  0
LINE
  5
DDF
330
DD5
100
AcDbEntity
  8
Visible (ANSI)
100
AcDbLine
 10
23.69063464396607
 20
47.55550852948635
 30
0.0
 11
23.44443270571301
 21
47.59892057390309
 31
0.0
  0
LINE
  5
DE0
330
DD5
100
AcDbEntity
  8
Visible (ANSI)
100
AcDbLine
 10
11.26939707861328
 20
47.59892057390307
 30
0.0
 11
13.66679682553805
 21
48.02164683282954
 31
0.0
  0
ARC
  5
DE1
330
DD5
100
AcDbEntity
  8
Visible (ANSI)
100
AcDbCircle
 10
13.73191489216314
 20
47.65234392544999
 30
0.0
 40
0.3749999999999889
100
AcDbArc
 50
89.9999999999992
 51
99.99999999999928
  0
LINE
  5
DE2
330
DD5
100
AcDbEntity
  8
Visible (ANSI)
100
AcDbLine
 10
20.98191489216314
 20
48.02734392544997
 30
0.0
 11
18.41941489216314
 21
48.02734392544997
 31
0.0
  0
LINE
  5
DE3
330
DD5
100
AcDbEntity
  8
Visible (ANSI)
100
AcDbLine
 10
16.04441489216314
 20
48.02734392544997
 30
0.0
 11
13.73191489216314
 21
48.02734392544997
 31
0.0
  0
ARC
  5
DE4
330
DD5
100
AcDbEntity
  8
Visible (ANSI)
100
AcDbCircle
 10
20.98191489216315
 20
47.65234392544999
 30
0.0
 40
0.3749999999999889
100
AcDbArc
 50
80.00000000000097
 51
90.00000000000104
  0
LINE
  5
DE5
330
DD5
100
AcDbEntity
  8
Visible (ANSI)
100
AcDbLine
 10
23.44443270571301
 20
47.59892057390309
 30
0.0
 11
21.04703295878824
 21
48.02164683282956
 31
0.0
  0
LINE
  5
DE6
330
DD5
100
AcDbEntity
  8
Visible (ANSI)
100
AcDbLine
 10
11.14439707861328
 20
47.66142057390307
 30
0.0
 11
10.89819514036023
 21
47.61800852948634
 31
0.0
  0
LINE
  5
DE7
330
DD5
100
AcDbEntity
  8
Visible (ANSI)
100
AcDbLine
 10
10.83307707373513
 20
47.98731143686592
 30
0.0
 11
10.89819514036023
 21
47.61800852948634
 31
0.0
  0
LINE
  5
DE8
330
DD5
100
AcDbEntity
  8
Visible (ANSI)
100
AcDbLine
 10
23.56563464396606
 20
47.61800852948634
 30
0.0
 11
23.63075271059116
 21
47.98731143686592
 31
0.0
  0
LINE
  5
DE9
330
DD5
100
AcDbEntity
  8
Visible (ANSI)
100
AcDbLine
 10
23.56563464396606
 20
47.61800852948634
 30
0.0
 11
23.31943270571301
 21
47.66142057390307
 31
0.0
  0
LINE
  5
DEA
330
DD5
100
AcDbEntity
  8
Visible (ANSI)
100
AcDbLine
 10
11.14439707861328
 20
47.66142057390307
 30
0.0
 11
13.54179682553805
 21
48.08414683282956
 31
0.0
  0
ARC
  5
DEB
330
DD5
100
AcDbEntity
  8
Visible (ANSI)
100
AcDbCircle
 10
13.60691489216314
 20
47.71484392544997
 30
0.0
 40
0.3749999999999888
100
AcDbArc
 50
89.9999999999992
 51
99.99999999999928
  0
ARC
  5
DEC
330
DD5
100
AcDbEntity
  8
Visible (ANSI)
100
AcDbCircle
 10
13.60691489216314
 20
47.71484392544997
 30
0.0
 40
0.7500000000000108
100
AcDbArc
 50
89.99999999999973
 51
99.9999999999996
  0
LINE
  5
DED
330
DD5
100
AcDbEntity
  8
Visible (ANSI)
100
AcDbLine
 10
20.85691489216314
 20
48.08984392544997
 30
0.0
 11
13.60691489216314
 21
48.08984392544997
 31
0.0
  0
LINE
  5
DEE
330
DD5
100
AcDbEntity
  8
Visible (ANSI)
100
AcDbLine
 10
13.60691489216314
 20
48.46484392544997
 30
0.0
 11
13.73171489216315
 21
48.46484392544997
 31
0.0
  0
LINE
  5
DEF
330
DD5
100
AcDbEntity
  8
Visible (ANSI)
100
AcDbLine
 10
17.10691489216315
 20
48.46484392544997
 30
0.0
 11
17.35691489216314
 21
48.46484392544997
 31
0.0
  0
LINE
  5
DF0
330
DD5
100
AcDbEntity
  8
Visible (ANSI)
100
AcDbLine
 10
20.73211489216314
 20
48.46484392544997
 30
0.0
 11
20.85691489216314
 21
48.46484392544997
 31
0.0
  0
ARC
  5
DF1
330
DD5
100
AcDbEntity
  8
Visible (ANSI)
100
AcDbCircle
 10
20.85691489216315
 20
47.71484392544997
 30
0.0
 40
0.3749999999999888
100
AcDbArc
 50
80.00000000000097
 51
90.00000000000104
  0
ARC
  5
DF2
330
DD5
100
AcDbEntity
  8
Visible (ANSI)
100
AcDbCircle
 10
20.85691489216315
 20
47.71484392544997
 30
0.0
 40
0.7500000000000108
100
AcDbArc
 50
80.0000000000004
 51
90.00000000000023
  0
LINE
  5
DF3
330
DD5
100
AcDbEntity
  8
Visible (ANSI)
100
AcDbLine
 10
23.31943270571301
 20
47.66142057390307
 30
0.0
 11
20.92203295878825
 21
48.08414683282956
 31
0.0
  0
LINE
  5
DF4
330
DD5
100
AcDbEntity
  8
Visible (ANSI)
100
AcDbLine
 10
21.18300365630799
 20
49.94205555496828
 30
0.0
 11
23.89122497709155
 21
49.46452306638422
 31
0.0
  0
ARC
  5
DF5
330
DD5
100
AcDbEntity
  8
Visible (ANSI)
100
AcDbCircle
 10
23.62557777780218
 20
48.74979387605428
 30
0.0
 40
0.7624999999999968
100
AcDbArc
 50
270.3888578154695
 51
69.61114218453055
  0
LINE
  5
DF6
330
DD5
100
AcDbEntity
  8
Visible (ANSI)
100
AcDbLine
 10
23.63075271059116
 20
47.98731143686592
 30
0.0
 11
20.9225313898076
 21
48.46484392544997
 31
0.0
  0
LINE
  5
DF7
330
DD5
100
AcDbEntity
  8
Visible (ANSI)
100
AcDbLine
 10
20.9225313898076
 20
48.46484392544997
 30
0.0
 11
21.18300365630799
 21
49.94205555496828
 31
0.0
  0
LINE
  5
DF8
330
DD5
100
AcDbEntity
  8
Visible (ANSI)
100
AcDbLine
 10
13.54129839451867
 20
48.46484392544997
 30
0.0
 11
10.83307707373512
 21
47.98731143686592
 31
0.0
  0
ARC
  5
DF9
330
DD5
100
AcDbEntity
  8
Visible (ANSI)
100
AcDbCircle
 10
10.8382520065241
 20
48.74979387605428
 30
0.0
 40
0.7624999999999953
100
AcDbArc
 50
110.3888578154695
 51
269.6111421845306
  0
LINE
  5
DFA
330
DD5
100
AcDbEntity
  8
Visible (ANSI)
100
AcDbLine
 10
10.57260480723473
 20
49.46452306638422
 30
0.0
 11
13.28082612801828
 21
49.94205555496828
 31
0.0
  0
LINE
  5
DFB
330
DD5
100
AcDbEntity
  8
Visible (ANSI)
100
AcDbLine
 10
13.28082612801828
 20
49.94205555496828
 30
0.0
 11
13.54129839451867
 21
48.46484392544997
 31
0.0
  0
LINE
  5
DFC
330
DD5
100
AcDbEntity
  8
Visible (ANSI)
100
AcDbLine
 10
18.23191489216314
 20
47.83984392544999
 30
0.0
 11
18.23191489216316
 21
33.21484392544997
 31
0.0
  0
LINE
  5
DFD
330
DD5
100
AcDbEntity
  8
Visible (ANSI)
100
AcDbLine
 10
16.23191489216314
 20
47.83984392545
 30
0.0
 11
16.23191489216316
 21
33.21484392544999
 31
0.0
  0
LINE
  5
DFE
330
DD5
100
AcDbEntity
  8
Visible (ANSI)
100
AcDbLine
 10
22.98191489216315
 20
33.08984392544998
 30
0.0
 11
11.48191489216316
 21
33.08984392544998
 31
0.0
  0
LINE
  5
DFF
330
DD5
100
AcDbEntity
  8
Visible (ANSI)
100
AcDbLine
 10
22.98191489216315
 20
33.08984392544998
 30
0.0
 11
23.23191489216315
 21
33.08984392544998
 31
0.0
  0
LINE
  5
E00
330
DD5
100
AcDbEntity
  8
Visible (ANSI)
100
AcDbLine
 10
11.23191489216315
 20
33.08984392544998
 30
0.0
 11
11.48191489216316
 21
33.08984392544998
 31
0.0
  0
LINE
  5
E01
330
DD5
100
AcDbEntity
  8
Visible (ANSI)
100
AcDbLine
 10
23.23191489216315
 20
32.71484392544998
 30
0.0
 11
23.23191489216315
 21
33.08984392544998
 31
0.0
  0
LINE
  5
E02
330
DD5
100
AcDbEntity
  8
Visible (ANSI)
100
AcDbLine
 10
11.23191489216315
 20
33.08984392544998
 30
0.0
 11
11.23191489216315
 21
32.71484392544998
 31
0.0
  0
LINE
  5
E03
330
DD5
100
AcDbEntity
  8
Visible (ANSI)
100
AcDbLine
 10
11.48191489216316
 20
32.71484392544998
 30
0.0
 11
11.23191489216315
 21
32.71484392544998
 31
0.0
  0
LINE
  5
E04
330
DD5
100
AcDbEntity
  8
Visible (ANSI)
100
AcDbLine
 10
11.48191489216316
 20
32.71484392544998
 30
0.0
 11
22.98191489216315
 21
32.71484392544998
 31
0.0
  0
LINE
  5
E05
330
DD5
100
AcDbEntity
  8
Visible (ANSI)
100
AcDbLine
 10
23.23191489216315
 20
32.71484392544998
 30
0.0
 11
22.98191489216315
 21
32.71484392544998
 31
0.0
  0
LINE
  5
E06
330
DD5
100
AcDbEntity
  8
Visible (ANSI)
100
AcDbLine
 10
17.35691489216314
 20
48.46484392544997
 30
0.0
 11
17.35691489216314
 21
49.96484392544997
 31
0.0
  0
LINE
  5
E07
330
DD5
100
AcDbEntity
  8
Visible (ANSI)
100
AcDbLine
 10
17.35691489216314
 20
49.96484392544997
 30
0.0
 11
20.73211489216314
 21
49.96484392544997
 31
0.0
  0
LINE
  5
E08
330
DD5
100
AcDbEntity
  8
Visible (ANSI)
100
AcDbLine
 10
20.73211489216314
 20
49.96484392544997
 30
0.0
 11
20.73211489216314
 21
48.46484392544997
 31
0.0
  0
LINE
  5
E09
330
DD5
100
AcDbEntity
  8
Visible (ANSI)
100
AcDbLine
 10
20.73211489216314
 20
48.46484392544997
 30
0.0
 11
17.35691489216314
 21
48.46484392544997
 31
0.0
  0
LINE
  5
E0A
330
DD5
100
AcDbEntity
  8
Visible (ANSI)
100
AcDbLine
 10
13.73171489216314
 20
48.46484392544997
 30
0.0
 11
13.73171489216314
 21
49.96484392544997
 31
0.0
  0
LINE
  5
E0B
330
DD5
100
AcDbEntity
  8
Visible (ANSI)
100
AcDbLine
 10
13.73171489216314
 20
49.96484392544997
 30
0.0
 11
17.10691489216315
 21
49.96484392544997
 31
0.0
  0
LINE
  5
E0C
330
DD5
100
AcDbEntity
  8
Visible (ANSI)
100
AcDbLine
 10
17.10691489216315
 20
49.96484392544997
 30
0.0
 11
17.10691489216315
 21
48.46484392544997
 31
0.0
  0
LINE
  5
E0D
330
DD5
100
AcDbEntity
  8
Visible (ANSI)
100
AcDbLine
 10
17.10691489216315
 20
48.46484392544997
 30
0.0
 11
13.73171489216314
 21
48.46484392544997
 31
0.0
  0
LINE
  5
E0E
330
DD5
100
AcDbEntity
  8
Visible (ANSI)
100
AcDbLine
 10
15.98191489216314
 20
48.08984392544997
 30
0.0
 11
16.23191489216315
 21
47.83984392544996
 31
0.0
  0
LINE
  5
E0F
330
DD5
100
AcDbEntity
  8
Visible (ANSI)
100
AcDbLine
 10
16.23191489216315
 20
47.83984392544996
 30
0.0
 11
16.48191489216314
 21
47.83984392544996
 31
0.0
  0
LINE
  5
E10
330
DD5
100
AcDbEntity
  8
Visible (ANSI)
100
AcDbLine
 10
17.98191489216314
 20
47.83984392544996
 30
0.0
 11
16.48191489216314
 21
47.83984392544996
 31
0.0
  0
LINE
  5
E11
330
DD5
100
AcDbEntity
  8
Visible (ANSI)
100
AcDbLine
 10
17.98191489216314
 20
47.83984392544996
 30
0.0
 11
18.23191489216314
 21
47.83984392544996
 31
0.0
  0
LINE
  5
E12
330
DD5
100
AcDbEntity
  8
Visible (ANSI)
100
AcDbLine
 10
18.48191489216314
 20
48.08984392544997
 30
0.0
 11
18.23191489216314
 21
47.83984392544996
 31
0.0
  0
LINE
  5
E13
330
DD5
100
AcDbEntity
  8
Visible (ANSI)
100
AcDbLine
 10
17.98191489216317
 20
33.21484392544999
 30
0.0
 11
16.48191489216316
 21
33.21484392544999
 31
0.0
  0
LINE
  5
E14
330
DD5
100
AcDbEntity
  8
Visible (ANSI)
100
AcDbLine
 10
18.23191489216316
 20
33.21484392544999
 30
0.0
 11
18.35691489216316
 21
33.08984392544998
 31
0.0
  0
LINE
  5
E15
330
DD5
100
AcDbEntity
  8
Visible (ANSI)
100
AcDbLine
 10
17.98191489216317
 20
33.21484392544999
 30
0.0
 11
18.23191489216316
 21
33.21484392544999
 31
0.0
  0
LINE
  5
E16
330
DD5
100
AcDbEntity
  8
Visible (ANSI)
100
AcDbLine
 10
16.23191489216316
 20
33.21484392544999
 30
0.0
 11
16.10691489216316
 21
33.08984392544998
 31
0.0
  0
LINE
  5
E17
330
DD5
100
AcDbEntity
  8
Visible (ANSI)
100
AcDbLine
 10
16.23191489216316
 20
33.21484392544999
 30
0.0
 11
16.48191489216316
 21
33.21484392544999
 31
0.0
  0
LINE
  5
E18
330
DD5
100
AcDbEntity
  8
Dimension (ANSI)
100
AcDbLine
 10
13.41921489216314
 20
49.96484392544997
 30
0.0
 11
13.4100653992299
 21
49.96484392544997
 31
0.0
  0
ENDBLK
  5
DD7
330
DD5
100
AcDbEntity
  8
0
100
AcDbBlockEnd
  0
BLOCK
  5
E1B
330
E1A
100
AcDbEntity
  8
0
100
AcDbBlockBegin
  2
PBS-5-FRONT VIEW
 70
     0
 10
0.0
 20
0.0
 30
0.0
  3
PBS-5-FRONT VIEW
  1

  0
LINE
  5
E1D
330
E1A
100
AcDbEntity
  8
Visible (ANSI)
100
AcDbLine
 10
96.69116639007221
 20
46.27734392544996
 30
0.0
 11
96.69116639007221
 21
47.61800852948634
 31
0.0
  0
LINE
  5
E1E
330
E1A
100
AcDbEntity
  8
Visible (ANSI)
100
AcDbLine
 10
96.69116639007221
 20
46.27734392544996
 30
0.0
 11
96.69116639007215
 21
46.02734392544997
 31
0.0
  0
LINE
  5
E1F
330
E1A
100
AcDbEntity
  8
Visible (ANSI)
100
AcDbLine
 10
47.19116639007215
 20
46.02734392544997
 30
0.0
 11
96.69116639007215
 21
46.02734392544997
 31
0.0
  0
LINE
  5
E20
330
E1A
100
AcDbEntity
  8
Visible (ANSI)
100
AcDbLine
 10
47.19116639007223
 20
47.61800852948634
 30
0.0
 11
47.19116639007223
 21
46.27734392544996
 31
0.0
  0
LINE
  5
E21
330
E1A
100
AcDbEntity
  8
Visible (ANSI)
100
AcDbLine
 10
47.19116639007215
 20
46.02734392544997
 30
0.0
 11
47.19116639007224
 21
46.27734392544996
 31
0.0
  0
LINE
  5
E22
330
E1A
100
AcDbEntity
  8
Visible (ANSI)
100
AcDbLine
 10
64.69116639007376
 20
47.96822348128264
 30
0.0
 11
64.69116639007373
 21
47.9873114368659
 31
0.0
  0
LINE
  5
E23
330
E1A
100
AcDbEntity
  8
Visible (ANSI)
100
AcDbLine
 10
61.69116639007373
 20
47.9873114368659
 30
0.0
 11
61.69116639007377
 21
47.96822348128264
 31
0.0
  0
LINE
  5
E24
330
E1A
100
AcDbEntity
  8
Visible (ANSI)
100
AcDbLine
 10
64.44116639007382
 20
47.9248114368659
 30
0.0
 11
61.94116639007384
 21
47.9248114368659
 31
0.0
  0
LINE
  5
E25
330
E1A
100
AcDbEntity
  8
Visible (ANSI)
100
AcDbLine
 10
64.44116639007382
 20
47.55550852948633
 30
0.0
 11
61.94116639007383
 21
47.55550852948633
 31
0.0
  0
LINE
  5
E26
330
E1A
100
AcDbEntity
  8
Visible (ANSI)
100
AcDbLine
 10
64.69116639007373
 20
47.59892057390307
 30
0.0
 11
64.69116639007376
 21
47.96822348128264
 31
0.0
  0
LINE
  5
E27
330
E1A
100
AcDbEntity
  8
Visible (ANSI)
100
AcDbLine
 10
61.69116639007377
 20
47.96822348128264
 30
0.0
 11
61.69116639007373
 21
47.59892057390307
 31
0.0
  0
ELLIPSE
  5
E28
330
E1A
100
AcDbEntity
  8
Visible (ANSI)
100
AcDbEllipse
 10
64.44116639007377
 20
47.96822348128264
 30
0.0
 11
0.2500000000000021
 21
-0.0000000000000007
 31
0.0
210
0.0
220
0.0
230
1.0
 40
0.1736481776669312
 41
4.712388980375569
 42
6.283185307160844
  0
ELLIPSE
  5
E29
330
E1A
100
AcDbEntity
  8
Visible (ANSI)
100
AcDbEllipse
 10
64.44116639007375
 20
47.59892057390307
 30
0.0
 11
0.2499999999999995
 21
0.0000000000000003
 31
0.0
210
0.0
220
0.0
230
1.0
 40
0.1736481776669289
 41
4.712388980385249
 42
6.283185307170312
  0
ELLIPSE
  5
E2A
330
E1A
100
AcDbEntity
  8
Visible (ANSI)
100
AcDbEllipse
 10
61.94116639007376
 20
47.96822348128264
 30
0.0
 11
-0.2499999999999995
 21
0.0000000000000001
 31
0.0
210
0.0
220
0.0
230
1.0
 40
0.1736481776669299
 41
0.0
 42
1.570796326795511
  0
ELLIPSE
  5
E2B
330
E1A
100
AcDbEntity
  8
Visible (ANSI)
100
AcDbEllipse
 10
61.94116639007375
 20
47.59892057390307
 30
0.0
 11
-0.2500000000000006
 21
0.0000000000000001
 31
0.0
210
0.0
220
0.0
230
1.0
 40
0.1736481776669294
 41
0.0
 42
1.570796326785496
  0
LINE
  5
E2C
330
E1A
100
AcDbEntity
  8
Visible (ANSI)
100
AcDbLine
 10
82.19116639007376
 20
47.96822348128264
 30
0.0
 11
82.19116639007372
 21
47.9873114368659
 31
0.0
  0
LINE
  5
E2D
330
E1A
100
AcDbEntity
  8
Visible (ANSI)
100
AcDbLine
 10
79.19116639007373
 20
47.9873114368659
 30
0.0
 11
79.19116639007376
 21
47.96822348128264
 31
0.0
  0
LINE
  5
E2E
330
E1A
100
AcDbEntity
  8
Visible (ANSI)
100
AcDbLine
 10
81.94116639007381
 20
47.9248114368659
 30
0.0
 11
79.44116639007382
 21
47.9248114368659
 31
0.0
  0
LINE
  5
E2F
330
E1A
100
AcDbEntity
  8
Visible (ANSI)
100
AcDbLine
 10
81.94116639007381
 20
47.55550852948633
 30
0.0
 11
79.44116639007382
 21
47.55550852948633
 31
0.0
  0
LINE
  5
E30
330
E1A
100
AcDbEntity
  8
Visible (ANSI)
100
AcDbLine
 10
82.19116639007372
 20
47.59892057390307
 30
0.0
 11
82.19116639007376
 21
47.96822348128264
 31
0.0
  0
LINE
  5
E31
330
E1A
100
AcDbEntity
  8
Visible (ANSI)
100
AcDbLine
 10
79.19116639007376
 20
47.96822348128264
 30
0.0
 11
79.19116639007373
 21
47.59892057390307
 31
0.0
  0
ELLIPSE
  5
E32
330
E1A
100
AcDbEntity
  8
Visible (ANSI)
100
AcDbEllipse
 10
81.94116639007376
 20
47.96822348128264
 30
0.0
 11
0.2500000000000021
 21
-0.0000000000000007
 31
0.0
210
0.0
220
0.0
230
1.0
 40
0.1736481776669312
 41
4.712388980375569
 42
6.283185307160844
  0
ELLIPSE
  5
E33
330
E1A
100
AcDbEntity
  8
Visible (ANSI)
100
AcDbEllipse
 10
81.94116639007374
 20
47.59892057390307
 30
0.0
 11
0.2499999999999995
 21
0.0000000000000003
 31
0.0
210
0.0
220
0.0
230
1.0
 40
0.1736481776669289
 41
4.712388980385249
 42
6.283185307170312
  0
ELLIPSE
  5
E34
330
E1A
100
AcDbEntity
  8
Visible (ANSI)
100
AcDbEllipse
 10
79.44116639007376
 20
47.96822348128264
 30
0.0
 11
-0.2499999999999995
 21
0.0000000000000001
 31
0.0
210
0.0
220
0.0
230
1.0
 40
0.1736481776669299
 41
0.0
 42
1.570796326795456
  0
ELLIPSE
  5
E35
330
E1A
100
AcDbEntity
  8
Visible (ANSI)
100
AcDbEllipse
 10
79.44116639007375
 20
47.59892057390307
 30
0.0
 11
-0.2500000000000006
 21
0.0000000000000001
 31
0.0
210
0.0
220
0.0
230
1.0
 40
0.1736481776669294
 41
0.0
 42
1.570796326785496
  0
LINE
  5
E36
330
E1A
100
AcDbEntity
  8
Visible (ANSI)
100
AcDbLine
 10
99.4411663900737
 20
47.66142057390307
 30
0.0
 11
99.44116639007372
 21
47.9873114368659
 31
0.0
  0
LINE
  5
E37
330
E1A
100
AcDbEntity
  8
Visible (ANSI)
100
AcDbLine
 10
96.44116639007371
 20
47.9873114368659
 30
0.0
 11
96.44116639007371
 21
47.66142057390307
 31
0.0
  0
ELLIPSE
  5
E38
330
E1A
100
AcDbEntity
  8
Visible (ANSI)
100
AcDbEllipse
 10
99.1911663900737
 20
47.66142057390307
 30
0.0
 11
0.2499999999999994
 21
0.0000000000000002
 31
0.0
210
0.0
220
0.0
230
1.0
 40
0.1736481776669277
 41
4.712388980385249
 42
6.28318530717031
  0
ELLIPSE
  5
E39
330
E1A
100
AcDbEntity
  8
Visible (ANSI)
100
AcDbEllipse
 10
96.6911663900737
 20
47.66142057390307
 30
0.0
 11
-0.2500000000000005
 21
0.0000000000000001
 31
0.0
210
0.0
220
0.0
230
1.0
 40
0.1736481776669283
 41
0.0
 42
1.570796326785496
  0
LINE
  5
E3A
330
E1A
100
AcDbEntity
  8
Visible (ANSI)
100
AcDbLine
 10
99.19116639007379
 20
47.9873114368659
 30
0.0
 11
96.69116639007379
 21
47.9873114368659
 31
0.0
  0
LINE
  5
E3B
330
E1A
100
AcDbEntity
  8
Visible (ANSI)
100
AcDbLine
 10
99.19116639007377
 20
47.61800852948634
 30
0.0
 11
96.69116639007377
 21
47.61800852948634
 31
0.0
  0
LINE
  5
E3C
330
E1A
100
AcDbEntity
  8
Visible (ANSI)
100
AcDbLine
 10
47.44116639007371
 20
47.66142057390307
 30
0.0
 11
47.44116639007372
 21
47.9873114368659
 31
0.0
  0
LINE
  5
E3D
330
E1A
100
AcDbEntity
  8
Visible (ANSI)
100
AcDbLine
 10
44.44116639007371
 20
47.9873114368659
 30
0.0
 11
44.44116639007369
 21
47.66142057390307
 31
0.0
  0
ELLIPSE
  5
E3E
330
E1A
100
AcDbEntity
  8
Visible (ANSI)
100
AcDbEllipse
 10
47.19116639007371
 20
47.66142057390307
 30
0.0
 11
0.2499999999999995
 21
0.0000000000000003
 31
0.0
210
0.0
220
0.0
230
1.0
 40
0.1736481776669297
 41
4.712388980385249
 42
6.283185307170303
  0
ELLIPSE
  5
E3F
330
E1A
100
AcDbEntity
  8
Visible (ANSI)
100
AcDbEllipse
 10
44.69116639007371
 20
47.66142057390307
 30
0.0
 11
-0.2500000000000006
 21
0.0000000000000001
 31
0.0
210
0.0
220
0.0
230
1.0
 40
0.1736481776669302
 41
0.0
 42
1.570796326785468
  0
LINE
  5
E40
330
E1A
100
AcDbEntity
  8
Visible (ANSI)
100
AcDbLine
 10
47.19116639007379
 20
47.9873114368659
 30
0.0
 11
44.69116639007379
 21
47.9873114368659
 31
0.0
  0
LINE
  5
E41
330
E1A
100
AcDbEntity
  8
Visible (ANSI)
100
AcDbLine
 10
47.19116639007379
 20
47.61800852948633
 30
0.0
 11
44.69116639007379
 21
47.61800852948633
 31
0.0
  0
LINE
  5
E42
330
E1A
100
AcDbEntity
  8
Visible (ANSI)
100
AcDbLine
 10
98.94116639007211
 20
33.21484392544997
 30
0.0
 11
98.94116639007211
 21
47.61800852948634
 31
0.0
  0
LINE
  5
E43
330
E1A
100
AcDbEntity
  8
Visible (ANSI)
100
AcDbLine
 10
96.94116639007212
 20
47.61800852948634
 30
0.0
 11
96.94116639007212
 21
33.21484392544996
 31
0.0
  0
LINE
  5
E44
330
E1A
100
AcDbEntity
  8
Visible (ANSI)
100
AcDbLine
 10
44.94116639007212
 20
47.61800852948633
 30
0.0
 11
44.94116639007212
 21
33.21484392544997
 31
0.0
  0
LINE
  5
E45
330
E1A
100
AcDbEntity
  8
Visible (ANSI)
100
AcDbLine
 10
46.94116639007211
 20
47.61800852948633
 30
0.0
 11
46.94116639007211
 21
33.21484392544999
 31
0.0
  0
LINE
  5
E46
330
E1A
100
AcDbEntity
  8
Visible (ANSI)
100
AcDbLine
 10
96.44116639007359
 20
33.08984392544997
 30
0.0
 11
96.69116639007368
 21
33.08984392544997
 31
0.0
  0
LINE
  5
E47
330
E1A
100
AcDbEntity
  8
Visible (ANSI)
100
AcDbLine
 10
99.19116639007366
 20
33.08984392544997
 30
0.0
 11
96.69116639007368
 21
33.08984392544997
 31
0.0
  0
LINE
  5
E48
330
E1A
100
AcDbEntity
  8
Visible (ANSI)
100
AcDbLine
 10
99.19116639007366
 20
33.08984392544997
 30
0.0
 11
99.4411663900736
 21
33.08984392544997
 31
0.0
  0
LINE
  5
E49
330
E1A
100
AcDbEntity
  8
Visible (ANSI)
100
AcDbLine
 10
96.69116639007368
 20
32.71484392544997
 30
0.0
 11
99.19116639007366
 21
32.71484392544997
 31
0.0
  0
LINE
  5
E4A
330
E1A
100
AcDbEntity
  8
Visible (ANSI)
100
AcDbLine
 10
99.4411663900736
 20
32.71484392544997
 30
0.0
 11
99.19116639007366
 21
32.71484392544997
 31
0.0
  0
LINE
  5
E4B
330
E1A
100
AcDbEntity
  8
Visible (ANSI)
100
AcDbLine
 10
99.4411663900736
 20
33.08984392544997
 30
0.0
 11
99.4411663900736
 21
32.71484392544997
 31
0.0
  0
LINE
  5
E4C
330
E1A
100
AcDbEntity
  8
Visible (ANSI)
100
AcDbLine
 10
96.44116639007359
 20
33.08984392544997
 30
0.0
 11
96.44116639007359
 21
32.71484392544997
 31
0.0
  0
LINE
  5
E4D
330
E1A
100
AcDbEntity
  8
Visible (ANSI)
100
AcDbLine
 10
96.69116639007368
 20
32.71484392544997
 30
0.0
 11
96.44116639007359
 21
32.71484392544997
 31
0.0
  0
LINE
  5
E4E
330
E1A
100
AcDbEntity
  8
Visible (ANSI)
100
AcDbLine
 10
44.4411663900736
 20
33.08984392544997
 30
0.0
 11
44.69116639007369
 21
33.08984392544997
 31
0.0
  0
LINE
  5
E4F
330
E1A
100
AcDbEntity
  8
Visible (ANSI)
100
AcDbLine
 10
47.19116639007368
 20
33.08984392544997
 30
0.0
 11
44.69116639007368
 21
33.08984392544997
 31
0.0
  0
LINE
  5
E50
330
E1A
100
AcDbEntity
  8
Visible (ANSI)
100
AcDbLine
 10
47.19116639007368
 20
33.08984392544997
 30
0.0
 11
47.44116639007361
 21
33.08984392544997
 31
0.0
  0
LINE
  5
E51
330
E1A
100
AcDbEntity
  8
Visible (ANSI)
100
AcDbLine
 10
44.69116639007368
 20
32.71484392544997
 30
0.0
 11
47.19116639007369
 21
32.71484392544997
 31
0.0
  0
LINE
  5
E52
330
E1A
100
AcDbEntity
  8
Visible (ANSI)
100
AcDbLine
 10
47.4411663900736
 20
32.71484392544997
 30
0.0
 11
47.19116639007368
 21
32.71484392544997
 31
0.0
  0
LINE
  5
E53
330
E1A
100
AcDbEntity
  8
Visible (ANSI)
100
AcDbLine
 10
47.44116639007361
 20
33.08984392544997
 30
0.0
 11
47.44116639007361
 21
32.71484392544997
 31
0.0
  0
LINE
  5
E54
330
E1A
100
AcDbEntity
  8
Visible (ANSI)
100
AcDbLine
 10
44.4411663900736
 20
33.08984392544997
 30
0.0
 11
44.4411663900736
 21
32.71484392544997
 31
0.0
  0
LINE
  5
E55
330
E1A
100
AcDbEntity
  8
Visible (ANSI)
100
AcDbLine
 10
44.69116639007369
 20
32.71484392544997
 30
0.0
 11
44.4411663900736
 21
32.71484392544997
 31
0.0
  0
ARC
  5
E56
330
E1A
100
AcDbEntity
  8
Visible (ANSI)
100
AcDbCircle
 10
96.81616639007174
 20
46.52734392544993
 30
0.0
 40
0.1249999999999996
100
AcDbArc
 50
270.0
 51
0.0
  0
LINE
  5
E57
330
E1A
100
AcDbEntity
  8
Visible (ANSI)
100
AcDbLine
 10
96.69116639007173
 20
46.40234392544993
 30
0.0
 11
96.81616639007174
 21
46.40234392544993
 31
0.0
  0
ARC
  5
E58
330
E1A
100
AcDbEntity
  8
Visible (ANSI)
100
AcDbCircle
 10
47.06616639007172
 20
46.52734392544997
 30
0.0
 40
0.1249999999999996
100
AcDbArc
 50
180.0
 51
270.0
  0
LINE
  5
E59
330
E1A
100
AcDbEntity
  8
Visible (ANSI)
100
AcDbLine
 10
47.06616639007172
 20
46.40234392544996
 30
0.0
 11
47.19116639007173
 21
46.40234392544996
 31
0.0
  0
LINE
  5
E5A
330
E1A
100
AcDbEntity
  8
Visible (ANSI)
100
AcDbLine
 10
101.9411663900741
 20
49.46452306638422
 30
0.0
 11
101.9411663900732
 21
49.94205555496828
 31
0.0
  0
LINE
  5
E5B
330
E1A
100
AcDbEntity
  8
Visible (ANSI)
100
AcDbLine
 10
101.9411663900741
 20
49.46452306638422
 30
0.0
 11
101.941166390074
 21
47.9873114368659
 31
0.0
  0
LINE
  5
E5C
330
E1A
100
AcDbEntity
  8
Visible (ANSI)
100
AcDbLine
 10
41.94116639007304
 20
49.94205555496828
 30
0.0
 11
41.94116639007385
 21
49.46452306638422
 31
0.0
  0
LINE
  5
E5D
330
E1A
100
AcDbEntity
  8
Visible (ANSI)
100
AcDbLine
 10
101.9411663900741
 20
49.46452306638422
 30
0.0
 11
41.94116639007385
 21
49.46452306638422
 31
0.0
  0
LINE
  5
E5E
330
E1A
100
AcDbEntity
  8
Visible (ANSI)
100
AcDbLine
 10
41.94116639007304
 20
49.94205555496828
 30
0.0
 11
101.9411663900732
 21
49.94205555496828
 31
0.0
  0
LINE
  5
E5F
330
E1A
100
AcDbEntity
  8
Visible (ANSI)
100
AcDbLine
 10
41.94116639007377
 20
47.9873114368659
 30
0.0
 11
41.94116639007385
 21
49.46452306638422
 31
0.0
  0
LINE
  5
E60
330
E1A
100
AcDbEntity
  8
Visible (ANSI)
100
AcDbLine
 10
101.941166390074
 20
47.9873114368659
 30
0.0
 11
41.94116639007378
 21
47.9873114368659
 31
0.0
  0
LINE
  5
E61
330
E1A
100
AcDbEntity
  8
Visible (ANSI)
100
AcDbLine
 10
101.9411663900729
 20
49.94205555496828
 30
0.0
 11
101.9411663900729
 21
49.96484392544997
 31
0.0
  0
LINE
  5
E62
330
E1A
100
AcDbEntity
  8
Visible (ANSI)
100
AcDbLine
 10
41.94116639007293
 20
49.96484392544997
 30
0.0
 11
101.9411663900729
 21
49.96484392544997
 31
0.0
  0
LINE
  5
E63
330
E1A
100
AcDbEntity
  8
Visible (ANSI)
100
AcDbLine
 10
41.94116639007293
 20
49.96484392544997
 30
0.0
 11
41.94116639007293
 21
49.94205555496828
 31
0.0
  0
LINE
  5
E64
330
E1A
100
AcDbEntity
  8
Visible (ANSI)
100
AcDbLine
 10
96.69116639007171
 20
46.52734392544993
 30
0.0
 11
96.9411663900718
 21
46.52734392544995
 31
0.0
  0
LINE
  5
E65
330
E1A
100
AcDbEntity
  8
Visible (ANSI)
100
AcDbLine
 10
96.78800178603571
 20
47.61800852948634
 30
0.0
 11
96.94116639007209
 21
47.46484392544997
 31
0.0
  0
LINE
  5
E66
330
E1A
100
AcDbEntity
  8
Visible (ANSI)
100
AcDbLine
 10
98.94116639007211
 20
33.21484392544997
 30
0.0
 11
99.06616639007211
 21
33.08984392544996
 31
0.0
  0
LINE
  5
E67
330
E1A
100
AcDbEntity
  8
Visible (ANSI)
100
AcDbLine
 10
96.94116639007212
 20
33.21484392544997
 30
0.0
 11
96.81616639007211
 21
33.08984392544996
 31
0.0
  0
LINE
  5
E68
330
E1A
100
AcDbEntity
  8
Visible (ANSI)
100
AcDbLine
 10
96.94116639007212
 20
33.21484392544997
 30
0.0
 11
97.1911663900722
 21
33.21484392544997
 31
0.0
  0
LINE
  5
E69
330
E1A
100
AcDbEntity
  8
Visible (ANSI)
100
AcDbLine
 10
98.69116639007222
 20
33.21484392544997
 30
0.0
 11
97.1911663900722
 21
33.21484392544997
 31
0.0
  0
LINE
  5
E6A
330
E1A
100
AcDbEntity
  8
Visible (ANSI)
100
AcDbLine
 10
98.69116639007222
 20
33.21484392544997
 30
0.0
 11
98.94116639007215
 21
33.21484392544997
 31
0.0
  0
LINE
  5
E6B
330
E1A
100
AcDbEntity
  8
Visible (ANSI)
100
AcDbLine
 10
47.19116639007173
 20
46.52734392544997
 30
0.0
 11
46.94116639007181
 21
46.52734392544997
 31
0.0
  0
LINE
  5
E6C
330
E1A
100
AcDbEntity
  8
Visible (ANSI)
100
AcDbLine
 10
47.09433099410843
 20
47.61800852948633
 30
0.0
 11
46.94116639007209
 21
47.46484392544997
 31
0.0
  0
LINE
  5
E6D
330
E1A
100
AcDbEntity
  8
Visible (ANSI)
100
AcDbLine
 10
44.94116639007212
 20
33.21484392544999
 30
0.0
 11
44.81616639007213
 21
33.08984392544998
 31
0.0
  0
LINE
  5
E6E
330
E1A
100
AcDbEntity
  8
Visible (ANSI)
100
AcDbLine
 10
44.94116639007212
 20
33.21484392544999
 30
0.0
 11
45.19116639007218
 21
33.21484392544999
 31
0.0
  0
LINE
  5
E6F
330
E1A
100
AcDbEntity
  8
Visible (ANSI)
100
AcDbLine
 10
46.6911663900722
 20
33.21484392544999
 30
0.0
 11
45.19116639007218
 21
33.21484392544999
 31
0.0
  0
LINE
  5
E70
330
E1A
100
AcDbEntity
  8
Visible (ANSI)
100
AcDbLine
 10
46.94116639007211
 20
33.21484392544999
 30
0.0
 11
47.06616639007211
 21
33.08984392544998
 31
0.0
  0
LINE
  5
E71
330
E1A
100
AcDbEntity
  8
Visible (ANSI)
100
AcDbLine
 10
46.6911663900722
 20
33.21484392544999
 30
0.0
 11
46.94116639007211
 21
33.21484392544999
 31
0.0
  0
ENDBLK
  5
E1C
330
E1A
100
AcDbEntity
  8
0
100
AcDbBlockEnd
  0
BLOCK
  5
E74
330
E73
100
AcDbEntity
  8
0
100
AcDbBlockBegin
  2
PBS-5-TOP VIEW
 70
     0
 10
0.0
 20
0.0
 30
0.0
  3
PBS-5-TOP VIEW
  1

  0
LINE
  5
E76
330
E73
100
AcDbEntity
  8
Visible (ANSI)
100
AcDbLine
 10
64.69116639006339
 20
73.69318284742611
 30
0.0
 11
64.6911663900634
 21
73.63280248303187
 31
0.0
  0
LINE
  5
E77
330
E73
100
AcDbEntity
  8
Visible (ANSI)
100
AcDbLine
 10
64.6911663900634
 20
73.63280248303187
 30
0.0
 11
64.69116639006343
 21
73.50276634978165
 31
0.0
  0
LINE
  5
E78
330
E73
100
AcDbEntity
  8
Visible (ANSI)
100
AcDbLine
 10
61.6911663900634
 20
73.63280248303098
 30
0.0
 11
61.69116639006338
 21
73.69318284742522
 31
0.0
  0
LINE
  5
E79
330
E73
100
AcDbEntity
  8
Visible (ANSI)
100
AcDbLine
 10
61.6911663900634
 20
73.63280248303098
 30
0.0
 11
61.69116639006343
 21
73.50276634978077
 31
0.0
  0
LINE
  5
E7A
330
E73
100
AcDbEntity
  8
Visible (ANSI)
100
AcDbLine
 10
64.69116639006557
 20
66.31194985213721
 30
0.0
 11
64.6911663900655
 21
66.50236634978168
 31
0.0
  0
LINE
  5
E7B
330
E73
100
AcDbEntity
  8
Visible (ANSI)
100
AcDbLine
 10
64.6911663900645
 20
69.87756634978167
 30
0.0
 11
64.69116639006442
 21
70.12756634978166
 31
0.0
  0
LINE
  5
E7C
330
E73
100
AcDbEntity
  8
Visible (ANSI)
100
AcDbLine
 10
61.69116639006444
 20
70.12756634978076
 30
0.0
 11
61.69116639006451
 21
69.87756634978078
 31
0.0
  0
LINE
  5
E7D
330
E73
100
AcDbEntity
  8
Visible (ANSI)
100
AcDbLine
 10
61.69116639006551
 20
66.50236634978077
 30
0.0
 11
61.69116639006556
 21
66.31194985213635
 31
0.0
  0
LINE
  5
E7E
330
E73
100
AcDbEntity
  8
Visible (ANSI)
100
AcDbLine
 10
82.19116639006339
 20
73.6931828474313
 30
0.0
 11
82.19116639006342
 21
73.63280248303706
 31
0.0
  0
LINE
  5
E7F
330
E73
100
AcDbEntity
  8
Visible (ANSI)
100
AcDbLine
 10
82.19116639006342
 20
73.63280248303706
 30
0.0
 11
82.19116639006342
 21
73.50276634978687
 31
0.0
  0
LINE
  5
E80
330
E73
100
AcDbEntity
  8
Visible (ANSI)
100
AcDbLine
 10
79.19116639006339
 20
73.63280248303617
 30
0.0
 11
79.19116639006337
 21
73.69318284743041
 31
0.0
  0
LINE
  5
E81
330
E73
100
AcDbEntity
  8
Visible (ANSI)
100
AcDbLine
 10
79.19116639006339
 20
73.63280248303616
 30
0.0
 11
79.19116639006344
 21
73.50276634978597
 31
0.0
  0
LINE
  5
E82
330
E73
100
AcDbEntity
  8
Visible (ANSI)
100
AcDbLine
 10
82.19116639006555
 20
66.31194985214242
 30
0.0
 11
82.1911663900655
 21
66.50236634978687
 31
0.0
  0
LINE
  5
E83
330
E73
100
AcDbEntity
  8
Visible (ANSI)
100
AcDbLine
 10
82.19116639006449
 20
69.87756634978686
 30
0.0
 11
82.19116639006443
 21
70.12756634978686
 31
0.0
  0
LINE
  5
E84
330
E73
100
AcDbEntity
  8
Visible (ANSI)
100
AcDbLine
 10
79.19116639006444
 20
70.12756634978598
 30
0.0
 11
79.19116639006451
 21
69.87756634978595
 31
0.0
  0
LINE
  5
E85
330
E73
100
AcDbEntity
  8
Visible (ANSI)
100
AcDbLine
 10
79.19116639006552
 20
66.50236634978597
 30
0.0
 11
79.19116639006556
 21
66.31194985214152
 31
0.0
  0
LINE
  5
E86
330
E73
100
AcDbEntity
  8
Visible (ANSI)
100
AcDbLine
 10
99.44116639006338
 20
73.69318284743646
 30
0.0
 11
99.44116639006338
 21
73.62756634979199
 31
0.0
  0
LINE
  5
E87
330
E73
100
AcDbEntity
  8
Visible (ANSI)
100
AcDbLine
 10
96.44116639006336
 20
73.69318284743556
 30
0.0
 11
96.44116639006341
 21
73.62756634979108
 31
0.0
  0
LINE
  5
E88
330
E73
100
AcDbEntity
  8
Visible (ANSI)
100
AcDbLine
 10
99.44116639006557
 20
66.37756634979196
 30
0.0
 11
99.44116639006551
 21
66.502366349792
 31
0.0
  0
LINE
  5
E89
330
E73
100
AcDbEntity
  8
Visible (ANSI)
100
AcDbLine
 10
99.44116639006452
 20
69.877566349792
 30
0.0
 11
99.44116639006443
 21
70.12756634979202
 31
0.0
  0
LINE
  5
E8A
330
E73
100
AcDbEntity
  8
Visible (ANSI)
100
AcDbLine
 10
99.44116639006345
 20
73.50276634979201
 30
0.0
 11
99.44116639006338
 21
73.62756634979196
 31
0.0
  0
LINE
  5
E8B
330
E73
100
AcDbEntity
  8
Visible (ANSI)
100
AcDbLine
 10
96.44116639006341
 20
73.62756634979108
 30
0.0
 11
96.44116639006345
 21
73.50276634979113
 31
0.0
  0
LINE
  5
E8C
330
E73
100
AcDbEntity
  8
Visible (ANSI)
100
AcDbLine
 10
96.44116639006442
 20
70.12756634979111
 30
0.0
 11
96.44116639006451
 21
69.87756634979111
 31
0.0
  0
LINE
  5
E8D
330
E73
100
AcDbEntity
  8
Visible (ANSI)
100
AcDbLine
 10
96.44116639006552
 20
66.50236634979113
 30
0.0
 11
96.44116639006556
 21
66.37756634979108
 31
0.0
  0
LINE
  5
E8E
330
E73
100
AcDbEntity
  8
Visible (ANSI)
100
AcDbLine
 10
99.44116639006557
 20
66.31194985214756
 30
0.0
 11
99.44116639006557
 21
66.37756634979196
 31
0.0
  0
LINE
  5
E8F
330
E73
100
AcDbEntity
  8
Visible (ANSI)
100
AcDbLine
 10
96.44116639006556
 20
66.31194985214666
 30
0.0
 11
96.44116639006556
 21
66.37756634979107
 31
0.0
  0
LINE
  5
E90
330
E73
100
AcDbEntity
  8
Visible (ANSI)
100
AcDbLine
 10
47.44116639006338
 20
73.69318284742104
 30
0.0
 11
47.4411663900634
 21
73.62756634977658
 31
0.0
  0
LINE
  5
E91
330
E73
100
AcDbEntity
  8
Visible (ANSI)
100
AcDbLine
 10
44.44116639006337
 20
73.69318284742012
 30
0.0
 11
44.4411663900634
 21
73.62756634977569
 31
0.0
  0
LINE
  5
E92
330
E73
100
AcDbEntity
  8
Visible (ANSI)
100
AcDbLine
 10
47.44116639006555
 20
66.37756634977657
 30
0.0
 11
47.44116639006551
 21
66.50236634977658
 31
0.0
  0
LINE
  5
E93
330
E73
100
AcDbEntity
  8
Visible (ANSI)
100
AcDbLine
 10
47.44116639006451
 20
69.87756634977657
 30
0.0
 11
47.44116639006444
 21
70.12756634977657
 31
0.0
  0
LINE
  5
E94
330
E73
100
AcDbEntity
  8
Visible (ANSI)
100
AcDbLine
 10
47.44116639006342
 20
73.50276634977657
 30
0.0
 11
47.4411663900634
 21
73.62756634977656
 31
0.0
  0
LINE
  5
E95
330
E73
100
AcDbEntity
  8
Visible (ANSI)
100
AcDbLine
 10
44.4411663900634
 20
73.62756634977569
 30
0.0
 11
44.44116639006344
 21
73.50276634977568
 31
0.0
  0
LINE
  5
E96
330
E73
100
AcDbEntity
  8
Visible (ANSI)
100
AcDbLine
 10
44.44116639006444
 20
70.12756634977566
 30
0.0
 11
44.44116639006451
 21
69.87756634977569
 31
0.0
  0
LINE
  5
E97
330
E73
100
AcDbEntity
  8
Visible (ANSI)
100
AcDbLine
 10
44.4411663900655
 20
66.50236634977567
 30
0.0
 11
44.44116639006554
 21
66.37756634977569
 31
0.0
  0
LINE
  5
E98
330
E73
100
AcDbEntity
  8
Visible (ANSI)
100
AcDbLine
 10
47.44116639006557
 20
66.31194985213212
 30
0.0
 11
47.44116639006555
 21
66.37756634977657
 31
0.0
  0
LINE
  5
E99
330
E73
100
AcDbEntity
  8
Visible (ANSI)
100
AcDbLine
 10
44.44116639006558
 20
66.31194985213122
 30
0.0
 11
44.44116639006554
 21
66.37756634977566
 31
0.0
  0
LINE
  5
E9A
330
E73
100
AcDbEntity
  8
Visible (ANSI)
100
AcDbLine
 10
101.9411663900658
 20
66.05147758564831
 30
0.0
 11
101.9411663900658
 21
66.31194985214827
 31
0.0
  0
LINE
  5
E9B
330
E73
100
AcDbEntity
  8
Visible (ANSI)
100
AcDbLine
 10
101.9411663900666
 20
63.34325626486461
 30
0.0
 11
101.9411663900658
 21
66.05147758564831
 31
0.0
  0
LINE
  5
E9C
330
E73
100
AcDbEntity
  8
Visible (ANSI)
100
AcDbLine
 10
101.9411663900666
 20
63.34325626486461
 30
0.0
 11
101.9411663900668
 21
62.84640346415379
 31
0.0
  0
LINE
  5
E9D
330
E73
100
AcDbEntity
  8
Visible (ANSI)
100
AcDbLine
 10
41.94116639006563
 20
66.05147758563053
 30
0.0
 11
41.94116639006643
 21
63.34325626484683
 31
0.0
  0
LINE
  5
E9E
330
E73
100
AcDbEntity
  8
Visible (ANSI)
100
AcDbLine
 10
101.9411663900666
 20
63.34325626486461
 30
0.0
 11
41.94116639006643
 21
63.34325626484683
 31
0.0
  0
LINE
  5
E9F
330
E73
100
AcDbEntity
  8
Visible (ANSI)
100
AcDbLine
 10
41.94116639006563
 20
66.05147758563053
 30
0.0
 11
101.9411663900658
 21
66.05147758564831
 31
0.0
  0
LINE
  5
EA0
330
E73
100
AcDbEntity
  8
Visible (ANSI)
100
AcDbLine
 10
41.94116639006657
 20
62.84640346413599
 30
0.0
 11
41.94116639006643
 21
63.3432562648468
 31
0.0
  0
LINE
  5
EA1
330
E73
100
AcDbEntity
  8
Visible (ANSI)
100
AcDbLine
 10
101.9411663900658
 20
66.31194985214827
 30
0.0
 11
41.94116639006556
 21
66.31194985213048
 31
0.0
  0
LINE
  5
EA2
330
E73
100
AcDbEntity
  8
Visible (ANSI)
100
AcDbLine
 10
41.94116639006556
 20
66.31194985213048
 30
0.0
 11
41.94116639006563
 21
66.05147758563053
 31
0.0
  0
LINE
  5
EA3
330
E73
100
AcDbEntity
  8
Visible (ANSI)
100
AcDbLine
 10
101.9411663900668
 20
62.84640346415379
 30
0.0
 11
41.94116639006657
 21
62.84640346413599
 31
0.0
  0
LINE
  5
EA4
330
E73
100
AcDbEntity
  8
Visible (ANSI)
100
AcDbLine
 10
101.9411663900633
 20
73.95365511393801
 30
0.0
 11
101.9411663900625
 21
76.66187643472143
 31
0.0
  0
LINE
  5
EA5
330
E73
100
AcDbEntity
  8
Visible (ANSI)
100
AcDbLine
 10
101.9411663900634
 20
73.69318284743719
 30
0.0
 11
101.9411663900633
 21
73.95365511393801
 31
0.0
  0
LINE
  5
EA6
330
E73
100
AcDbEntity
  8
Visible (ANSI)
100
AcDbLine
 10
101.9411663900624
 20
77.15872923543185
 30
0.0
 11
101.9411663900625
 21
76.66187643472143
 31
0.0
  0
LINE
  5
EA7
330
E73
100
AcDbEntity
  8
Visible (ANSI)
100
AcDbLine
 10
41.94116639006336
 20
73.6931828474194
 30
0.0
 11
101.9411663900634
 21
73.69318284743719
 31
0.0
  0
LINE
  5
EA8
330
E73
100
AcDbEntity
  8
Visible (ANSI)
100
AcDbLine
 10
41.94116639006248
 20
76.66187643470364
 30
0.0
 11
41.94116639006234
 21
77.15872923541407
 31
0.0
  0
LINE
  5
EA9
330
E73
100
AcDbEntity
  8
Visible (ANSI)
100
AcDbLine
 10
101.9411663900625
 20
76.66187643472143
 30
0.0
 11
41.94116639006248
 21
76.66187643470364
 31
0.0
  0
LINE
  5
EAA
330
E73
100
AcDbEntity
  8
Visible (ANSI)
100
AcDbLine
 10
41.94116639006248
 20
76.66187643470364
 30
0.0
 11
41.94116639006328
 21
73.95365511392023
 31
0.0
  0
LINE
  5
EAB
330
E73
100
AcDbEntity
  8
Visible (ANSI)
100
AcDbLine
 10
101.9411663900633
 20
73.95365511393801
 30
0.0
 11
41.94116639006328
 21
73.95365511392023
 31
0.0
  0
LINE
  5
EAC
330
E73
100
AcDbEntity
  8
Visible (ANSI)
100
AcDbLine
 10
41.94116639006328
 20
73.95365511392023
 30
0.0
 11
41.94116639006336
 21
73.6931828474194
 31
0.0
  0
LINE
  5
EAD
330
E73
100
AcDbEntity
  8
Visible (ANSI)
100
AcDbLine
 10
101.9411663900624
 20
77.15872923543185
 30
0.0
 11
41.94116639006234
 21
77.15872923541407
 31
0.0
  0
LINE
  5
EAE
330
E73
100
AcDbEntity
  8
Visible (ANSI)
100
AcDbLine
 10
101.9411663900655
 20
66.50236634979319
 30
0.0
 11
101.9411663900645
 21
69.87756634979317
 31
0.0
  0
LINE
  5
EAF
330
E73
100
AcDbEntity
  8
Visible (ANSI)
100
AcDbLine
 10
41.94116639006449
 20
69.87756634977539
 30
0.0
 11
101.9411663900645
 21
69.87756634979317
 31
0.0
  0
LINE
  5
EB0
330
E73
100
AcDbEntity
  8
Visible (ANSI)
100
AcDbLine
 10
41.94116639006449
 20
69.87756634977539
 30
0.0
 11
41.9411663900655
 21
66.50236634977538
 31
0.0
  0
LINE
  5
EB1
330
E73
100
AcDbEntity
  8
Visible (ANSI)
100
AcDbLine
 10
41.9411663900655
 20
66.50236634977538
 30
0.0
 11
101.9411663900655
 21
66.50236634979319
 31
0.0
  0
LINE
  5
EB2
330
E73
100
AcDbEntity
  8
Visible (ANSI)
100
AcDbLine
 10
101.9411663900644
 20
70.12756634979317
 30
0.0
 11
101.9411663900634
 21
73.50276634979319
 31
0.0
  0
LINE
  5
EB3
330
E73
100
AcDbEntity
  8
Visible (ANSI)
100
AcDbLine
 10
41.94116639006342
 20
73.50276634977539
 30
0.0
 11
101.9411663900634
 21
73.50276634979319
 31
0.0
  0
LINE
  5
EB4
330
E73
100
AcDbEntity
  8
Visible (ANSI)
100
AcDbLine
 10
41.94116639006342
 20
73.50276634977539
 30
0.0
 11
41.94116639006441
 21
70.12756634977539
 31
0.0
  0
LINE
  5
EB5
330
E73
100
AcDbEntity
  8
Visible (ANSI)
100
AcDbLine
 10
41.94116639006441
 20
70.12756634977539
 30
0.0
 11
101.9411663900644
 21
70.12756634979317
 31
0.0
  0
LINE
  5
EB6
330
E73
100
AcDbEntity
  8
Visible (ANSI)
100
AcDbLine
 10
64.87866639006444
 20
70.12756634978163
 30
0.0
 11
64.87866639006451
 21
69.8775663497816
 31
0.0
  0
LINE
  5
EB7
330
E73
100
AcDbEntity
  8
Visible (ANSI)
100
AcDbLine
 10
61.50366639006451
 20
69.87756634978062
 30
0.0
 11
61.50366639006444
 21
70.12756634978062
 31
0.0
  0
LINE
  5
EB8
330
E73
100
AcDbEntity
  8
Visible (ANSI)
100
AcDbLine
 10
82.37866639006444
 20
70.12756634978682
 30
0.0
 11
82.37866639006451
 21
69.87756634978682
 31
0.0
  0
LINE
  5
EB9
330
E73
100
AcDbEntity
  8
Visible (ANSI)
100
AcDbLine
 10
79.00366639006451
 20
69.8775663497858
 30
0.0
 11
79.00366639006444
 21
70.12756634978583
 31
0.0
  0
ENDBLK
  5
E75
330
E73
100
AcDbEntity
  8
0
100
AcDbBlockEnd
  0
ENDSEC
  0
SECTION
  2
ENTITIES
  0
INSERT
  5
E19
330
75
100
AcDbEntity
  8
0
100
AcDbBlockReference
  2
PBS-5-SIDE VIEW
 10
0.0
 20
0.0
 30
0.0
  0
INSERT
  5
E72
330
75
100
AcDbEntity
  8
0
100
AcDbBlockReference
  2
PBS-5-FRONT VIEW
 10
0.0
 20
0.0
 30
0.0
  0
INSERT
  5
EBA
330
75
100
AcDbEntity
  8
0
100
AcDbBlockReference
  2
PBS-5-TOP VIEW
 10
0.0
 20
11.02004537686713
 30
0.0
  0
MTEXT
  5
EBD
102
{ACAD_XDICTIONARY
360
EC1
102
}
330
75
100
AcDbEntity
  8
0
100
AcDbMText
 10
6.717580999197593
 20
29.85857657725785
 30
0.0
 40
2.0
 41
19.28873475329607
 46
9.171055289144705
 71
     1
 72
     5
  1
\pi4.9777;PBS-5\P\pi0.9777;SIDE VIEW
 73
     1
 44
1.0
  0
MTEXT
  5
EBE
102
{ACAD_XDICTIONARY
360
EC3
102
}
330
75
100
AcDbEntity
  8
0
100
AcDbMText
 10
62.81489969578672
 20
29.85857657725785
 30
0.0
 40
2.0
 41
24.35907588503705
 46
9.171055289144705
 71
     1
 72
     5
  1
\pi7.5129;PBS-5\P\pi2.1795;FRONT VIEW
 73
     1
 44
1.0
  0
MTEXT
  5
EBF
102
{ACAD_XDICTIONARY
360
EC5
102
}
330
75
100
AcDbEntity
  8
0
100
AcDbMText
 10
62.81489969578672
 20
67.92319459065168
 30
0.0
 40
2.0
 41
19.28873475329607
 46
9.171055289144705
 71
     1
 72
     5
  1
\pi4.9777;PBS-5\P\pi1.6444;TOP VIEW
 73
     1
 44
1.0
  0
ENDSEC
  0
SECTION
  2
OBJECTS
  0
DICTIONARY
  5
C
330
0
100
AcDbDictionary
281
     1
  3
ACAD_COLOR
350
6B
  3
ACAD_GROUP
350
D
  3
ACAD_LAYOUT
350
6A
  3
ACAD_MATERIAL
350
10
  3
ACAD_MLEADERSTYLE
350
6E
  3
ACAD_MLINESTYLE
350
67
  3
ACAD_PLOTSETTINGS
350
69
  3
ACAD_PLOTSTYLENAME
350
E
  3
ACAD_SCALELIST
350
3A
  3
ACAD_TABLESTYLE
350
6C
  3
ACAD_VISUALSTYLE
350
29
  3
ACDB_RECOMPOSE_DATA
350
7F
  3
AcDbVariableDictionary
350
80
  3
AcmDictionary
350
D8F
  3
AMG
350
D35
  3
AMGSNAPSETTINGS
350
DCE
  0
DICTIONARY
  5
EC1
330
EBD
100
AcDbDictionary
280
     1
281
     1
  3
ACAD_MTEXT_2008_RT
360
EC2
  0
DICTIONARY
  5
EC3
330
EBE
100
AcDbDictionary
280
     1
281
     1
  3
ACAD_MTEXT_2008_RT
360
EC4
  0
DICTIONARY
  5
EC5
330
EBF
100
AcDbDictionary
280
     1
281
     1
  3
ACAD_MTEXT_2008_RT
360
EC6
  0
DICTIONARY
  5
6B
102
{ACAD_REACTORS
330
C
102
}
330
C
100
AcDbDictionary
281
     1
  0
DICTIONARY
  5
D
102
{ACAD_REACTORS
330
C
102
}
330
C
100
AcDbDictionary
281
     1
  0
DICTIONARY
  5
6A
102
{ACAD_REACTORS
330
C
102
}
330
C
100
AcDbDictionary
281
     1
  3
Layout1
350
74
  3
Layout2
350
7C
  3
Model
350
78
  0
DICTIONARY
  5
10
102
{ACAD_REACTORS
330
C
102
}
330
C
100
AcDbDictionary
281
     1
  3
ByBlock
350
19
  3
ByLayer
350
11
  3
Global
350
21
  0
DICTIONARY
  5
6E
102
{ACAD_REACTORS
330
C
102
}
330
C
100
AcDbDictionary
281
     1
  3
Standard
350
6F
  0
DICTIONARY
  5
67
102
{ACAD_REACTORS
330
C
102
}
330
C
100
AcDbDictionary
281
     1
  3
Standard
350
68
  0
DICTIONARY
  5
69
102
{ACAD_REACTORS
330
C
102
}
330
C
100
AcDbDictionary
281
     1
  0
ACDBDICTIONARYWDFLT
  5
E
102
{ACAD_REACTORS
330
C
102
}
330
C
100
AcDbDictionary
281
     1
  3
Normal
350
F
100
AcDbDictionaryWithDefault
340
F
  0
DICTIONARY
  5
3A
102
{ACAD_REACTORS
330
C
102
}
330
C
100
AcDbDictionary
281
     1
  3
A0
350
3B
  3
A1
350
3C
  3
A2
350
3D
  3
A3
350
3E
  3
A4
350
3F
  3
A5
350
40
  3
A6
350
41
  3
A7
350
42
  3
A8
350
43
  3
A9
350
44
  3
B0
350
45
  3
B1
350
46
  3
B2
350
47
  3
B3
350
48
  3
B4
350
49
  3
B5
350
4A
  3
B6
350
4B
  3
B7
350
4C
  3
B8
350
4D
  3
B9
350
4E
  3
C0
350
4F
  3
C1
350
50
  3
C2
350
51
  3
C3
350
52
  3
C4
350
53
  3
C5
350
54
  3
C6
350
55
  3
C7
350
56
  3
C8
350
57
  3
C9
350
58
  3
D0
350
59
  3
D1
350
5A
  3
D2
350
5B
  0
DICTIONARY
  5
6C
102
{ACAD_REACTORS
330
C
102
}
330
C
100
AcDbDictionary
281
     1
  3
Standard
350
6D
  0
DICTIONARY
  5
29
102
{ACAD_REACTORS
330
C
102
}
330
C
100
AcDbDictionary
281
     1
  3
2dWireframe
350
2F
  3
3D Hidden
350
31
  3
3dWireframe
350
30
  3
Basic
350
2E
  3
Brighten
350
35
  3
ColorChange
350
39
  3
Conceptual
350
32
  3
Dim
350
34
  3
Facepattern
350
38
  3
Flat
350
2A
  3
FlatWithEdges
350
2B
  3
Gouraud
350
2C
  3
GouraudWithEdges
350
2D
  3
Linepattern
350
37
  3
Realistic
350
33
  3
Thicken
350
36
  0
XRECORD
  5
7F
102
{ACAD_REACTORS
330
C
102
}
330
C
100
AcDbXrecord
280
     1
 90
        1
330
6D
330
EBD
330
EBE
330
EBF
  0
DICTIONARY
  5
80
102
{ACAD_REACTORS
330
C
102
}
330
C
100
AcDbDictionary
281
     1
  3
CANNOSCALE
350
83
  3
CMLEADERSTYLE
350
82
  3
CTABLESTYLE
350
81
  3
LAYEREVAL
350
CE0
  3
LAYERNOTIFY
350
CE1
  3
LIGHTINGUNITS
350
CDF
  3
MSLTSCALE
350
CDE
  0
DICTIONARY
  5
D8F
102
{ACAD_REACTORS
330
C
102
}
330
C
100
AcDbDictionary
281
     1
  3
AcmStdDictionary
350
D9C
  0
DICTIONARY
  5
D35
102
{ACAD_REACTORS
330
C
102
}
330
C
100
AcDbDictionary
281
     1
  0
DICTIONARY
  5
DCE
102
{ACAD_REACTORS
330
C
102
}
330
C
100
AcDbDictionary
281
     1
  0
XRECORD
  5
EC2
102
{ACAD_REACTORS
330
EC1
102
}
330
EC1
100
AcDbXrecord
280
     1
 40
45773.0
  1
\pxqc;PBS-5\PSIDE VIEW
  0
XRECORD
  5
EC4
102
{ACAD_REACTORS
330
EC3
102
}
330
EC3
100
AcDbXrecord
280
     1
 40
49094.0
  1
\pxqc;PBS-5\PFRONT VIEW
  0
XRECORD
  5
EC6
102
{ACAD_REACTORS
330
EC5
102
}
330
EC5
100
AcDbXrecord
280
     1
 40
43576.0
  1
\pxqc;PBS-5\PTOP VIEW
  0
LAYOUT
  5
74
102
{ACAD_REACTORS
330
6A
102
}
330
6A
100
AcDbPlotSettings
  1

  2

  4

  6

 40
0.0
 41
0.0
 42
0.0
 43
0.0
 44
0.0
 45
0.0
 46
0.0
 47
0.0
 48
0.0
 49
0.0
140
0.0
141
0.0
142
1.0
143
1.0
 70
   688
 72
     0
 73
     0
 74
     5
  7

 75
    16
147
1.0
 76
     0
 77
     2
 78
   300
148
0.0
149
0.0
100
AcDbLayout
  1
Layout1
 70
     1
 71
     1
 10
0.0
 20
0.0
 11
110.0
 21
85.0
 12
0.0
 22
0.0
 32
0.0
 14
0.0
 24
0.0
 34
0.0
 15
110.0
 25
85.0
 35
0.0
146
0.0
 13
0.0
 23
0.0
 33
0.0
 16
1.0
 26
0.0
 36
0.0
 17
0.0
 27
1.0
 37
0.0
 76
     0
330
71
  0
LAYOUT
  5
7C
102
{ACAD_REACTORS
330
6A
102
}
330
6A
100
AcDbPlotSettings
  1

  2

  4

  6

 40
0.0
 41
0.0
 42
0.0
 43
0.0
 44
0.0
 45
0.0
 46
0.0
 47
0.0
 48
0.0
 49
0.0
140
0.0
141
0.0
142
1.0
143
1.0
 70
   688
 72
     0
 73
     0
 74
     5
  7

 75
    16
147
1.0
 76
     0
 77
     2
 78
   300
148
0.0
149
0.0
100
AcDbLayout
  1
Layout2
 70
     1
 71
     2
 10
0.0
 20
0.0
 11
12.0
 21
9.0
 12
0.0
 22
0.0
 32
0.0
 14
0.0
 24
0.0
 34
0.0
 15
0.0
 25
0.0
 35
0.0
146
0.0
 13
0.0
 23
0.0
 33
0.0
 16
1.0
 26
0.0
 36
0.0
 17
0.0
 27
1.0
 37
0.0
 76
     0
330
79
  0
LAYOUT
  5
78
102
{ACAD_REACTORS
330
6A
102
}
330
6A
100
AcDbPlotSettings
  1

  2

  4

  6

 40
0.0
 41
0.0
 42
0.0
 43
0.0
 44
0.0
 45
0.0
 46
0.0
 47
0.0
 48
0.0
 49
0.0
140
0.0
141
0.0
142
1.0
143
1.0
 70
  1712
 72
     0
 73
     0
 74
     0
  7

 75
     0
147
1.0
 76
     0
 77
     2
 78
   300
148
0.0
149
0.0
100
AcDbLayout
  1
Model
 70
     1
 71
     0
 10
0.0
 20
0.0
 11
12.0
 21
9.0
 12
0.0
 22
0.0
 32
0.0
 14
0.0
 24
0.0
 34
0.0
 15
0.0
 25
0.0
 35
0.0
146
0.0
 13
0.0
 23
0.0
 33
0.0
 16
1.0
 26
0.0
 36
0.0
 17
0.0
 27
1.0
 37
0.0
 76
     0
330
75
331
5F
  0
MATERIAL
  5
19
102
{ACAD_XDICTIONARY
360
1A
102
}
102
{ACAD_REACTORS
330
10
102
}
330
10
100
AcDbMaterial
  1
ByBlock
 72
     0
 43
0.0208333333333333
 43
0.0
 43
0.0
 43
0.0
 43
0.0
 43
0.0208333333333333
 43
0.0
 43
0.0
 43
0.0
 43
0.0
 43
1.0
 43
0.0
 43
0.0
 43
0.0
 43
0.0
 43
1.0
 77
     0
 47
0.0208333333333333
 47
0.0
 47
0.0
 47
0.0
 47
0.0
 47
0.0208333333333333
 47
0.0
 47
0.0
 47
0.0
 47
0.0
 47
1.0
 47
0.0
 47
0.0
 47
0.0
 47
0.0
 47
1.0
171
     0
 49
0.0208333333333333
 49
0.0
 49
0.0
 49
0.0
 49
0.0
 49
0.0208333333333333
 49
0.0
 49
0.0
 49
0.0
 49
0.0
 49
1.0
 49
0.0
 49
0.0
 49
0.0
 49
0.0
 49
1.0
175
     0
142
0.0208333333333333
142
0.0
142
0.0
142
0.0
142
0.0
142
0.0208333333333333
142
0.0
142
0.0
142
0.0
142
0.0
142
1.0
142
0.0
142
0.0
142
0.0
142
0.0
142
1.0
179
     0
144
0.0208333333333333
144
0.0
144
0.0
144
0.0
144
0.0
144
0.0208333333333333
144
0.0
144
0.0
144
0.0
144
0.0
144
1.0
144
0.0
144
0.0
144
0.0
144
0.0
144
1.0
147
0.0208333333333333
147
0.0
147
0.0
147
0.0
147
0.0
147
0.0208333333333333
147
0.0
147
0.0
147
0.0
147
0.0
147
1.0
147
0.0
147
0.0
147
0.0
147
0.0
147
1.0
  0
MATERIAL
  5
11
102
{ACAD_XDICTIONARY
360
12
102
}
102
{ACAD_REACTORS
330
10
102
}
330
10
100
AcDbMaterial
  1
ByLayer
 72
     0
 43
0.0208333333333333
 43
0.0
 43
0.0
 43
0.0
 43
0.0
 43
0.0208333333333333
 43
0.0
 43
0.0
 43
0.0
 43
0.0
 43
1.0
 43
0.0
 43
0.0
 43
0.0
 43
0.0
 43
1.0
 77
     0
 47
0.0208333333333333
 47
0.0
 47
0.0
 47
0.0
 47
0.0
 47
0.0208333333333333
 47
0.0
 47
0.0
 47
0.0
 47
0.0
 47
1.0
 47
0.0
 47
0.0
 47
0.0
 47
0.0
 47
1.0
171
     0
 49
0.0208333333333333
 49
0.0
 49
0.0
 49
0.0
 49
0.0
 49
0.0208333333333333
 49
0.0
 49
0.0
 49
0.0
 49
0.0
 49
1.0
 49
0.0
 49
0.0
 49
0.0
 49
0.0
 49
1.0
175
     0
142
0.0208333333333333
142
0.0
142
0.0
142
0.0
142
0.0
142
0.0208333333333333
142
0.0
142
0.0
142
0.0
142
0.0
142
1.0
142
0.0
142
0.0
142
0.0
142
0.0
142
1.0
179
     0
144
0.0208333333333333
144
0.0
144
0.0
144
0.0
144
0.0
144
0.0208333333333333
144
0.0
144
0.0
144
0.0
144
0.0
144
1.0
144
0.0
144
0.0
144
0.0
144
0.0
144
1.0
147
0.0208333333333333
147
0.0
147
0.0
147
0.0
147
0.0
147
0.0208333333333333
147
0.0
147
0.0
147
0.0
147
0.0
147
1.0
147
0.0
147
0.0
147
0.0
147
0.0
147
1.0
  0
MATERIAL
  5
21
102
{ACAD_XDICTIONARY
360
22
102
}
102
{ACAD_REACTORS
330
10
102
}
330
10
100
AcDbMaterial
  1
Global
 72
     0
 43
0.0208333333333333
 43
0.0
 43
0.0
 43
0.0
 43
0.0
 43
0.0208333333333333
 43
0.0
 43
0.0
 43
0.0
 43
0.0
 43
1.0
 43
0.0
 43
0.0
 43
0.0
 43
0.0
 43
1.0
 77
     0
 47
0.0208333333333333
 47
0.0
 47
0.0
 47
0.0
 47
0.0
 47
0.0208333333333333
 47
0.0
 47
0.0
 47
0.0
 47
0.0
 47
1.0
 47
0.0
 47
0.0
 47
0.0
 47
0.0
 47
1.0
171
     0
 49
0.0208333333333333
 49
0.0
 49
0.0
 49
0.0
 49
0.0
 49
0.0208333333333333
 49
0.0
 49
0.0
 49
0.0
 49
0.0
 49
1.0
 49
0.0
 49
0.0
 49
0.0
 49
0.0
 49
1.0
175
     0
142
0.0208333333333333
142
0.0
142
0.0
142
0.0
142
0.0
142
0.0208333333333333
142
0.0
142
0.0
142
0.0
142
0.0
142
1.0
142
0.0
142
0.0
142
0.0
142
0.0
142
1.0
179
     0
144
0.0208333333333333
144
0.0
144
0.0
144
0.0
144
0.0
144
0.0208333333333333
144
0.0
144
0.0
144
0.0
144
0.0
144
1.0
144
0.0
144
0.0
144
0.0
144
0.0
144
1.0
147
0.0208333333333333
147
0.0
147
0.0
147
0.0
147
0.0
147
0.0208333333333333
147
0.0
147
0.0
147
0.0
147
0.0
147
1.0
147
0.0
147
0.0
147
0.0
147
0.0
147
1.0
  0
MLEADERSTYLE
  5
6F
102
{ACAD_REACTORS
330
6E
102
}
330
6E
100
AcDbMLeaderStyle
170
     2
171
     1
172
     0
 90
        2
 40
0.0
 41
0.0
173
     1
 91
-1056964608
340
63
 92
       -2
290
     1
 42
0.09
291
     1
 43
0.36
  3
Standard
 44
0.18
300

342
5D
174
     1
178
     6
175
     1
176
     0
 93
-1056964608
 45
0.18
292
     0
297
     0
 46
0.18
 94
-1056964608
 47
1.0
 49
1.0
140
1.0
293
     1
141
0.0
294
     1
177
     0
142
1.0
295
     0
296
     0
143
0.125
1001
ACAD_MLEADERVER
1070
     2
  0
MLINESTYLE
  5
68
102
{ACAD_REACTORS
330
67
102
}
330
67
100
AcDbMlineStyle
  2
STANDARD
 70
     0
  3

 62
   256
 51
90.0
 52
90.0
 71
     2
 49
0.5
 62
   256
  6
BYLAYER
 49
-0.5
 62
   256
  6
BYLAYER
  0
ACDBPLACEHOLDER
  5
F
102
{ACAD_REACTORS
330
E
102
}
330
E
  0
SCALE
  5
3B
102
{ACAD_REACTORS
330
3A
102
}
330
3A
100
AcDbScale
 70
     0
300
1:1
140
1.0
141
1.0
290
     1
  0
SCALE
  5
3C
102
{ACAD_REACTORS
330
3A
102
}
330
3A
100
AcDbScale
 70
     0
300
1:2
140
1.0
141
2.0
290
     0
  0
SCALE
  5
3D
102
{ACAD_REACTORS
330
3A
102
}
330
3A
100
AcDbScale
 70
     0
300
1:4
140
1.0
141
4.0
290
     0
  0
SCALE
  5
3E
102
{ACAD_REACTORS
330
3A
102
}
330
3A
100
AcDbScale
 70
     0
300
1:5
140
1.0
141
5.0
290
     0
  0
SCALE
  5
3F
102
{ACAD_REACTORS
330
3A
102
}
330
3A
100
AcDbScale
 70
     0
300
1:8
140
1.0
141
8.0
290
     0
  0
SCALE
  5
40
102
{ACAD_REACTORS
330
3A
102
}
330
3A
100
AcDbScale
 70
     0
300
1:10
140
1.0
141
10.0
290
     0
  0
SCALE
  5
41
102
{ACAD_REACTORS
330
3A
102
}
330
3A
100
AcDbScale
 70
     0
300
1:16
140
1.0
141
16.0
290
     0
  0
SCALE
  5
42
102
{ACAD_REACTORS
330
3A
102
}
330
3A
100
AcDbScale
 70
     0
300
1:20
140
1.0
141
20.0
290
     0
  0
SCALE
  5
43
102
{ACAD_REACTORS
330
3A
102
}
330
3A
100
AcDbScale
 70
     0
300
1:30
140
1.0
141
30.0
290
     0
  0
SCALE
  5
44
102
{ACAD_REACTORS
330
3A
102
}
330
3A
100
AcDbScale
 70
     0
300
1:40
140
1.0
141
40.0
290
     0
  0
SCALE
  5
45
102
{ACAD_REACTORS
330
3A
102
}
330
3A
100
AcDbScale
 70
     0
300
1:50
140
1.0
141
50.0
290
     0
  0
SCALE
  5
46
102
{ACAD_REACTORS
330
3A
102
}
330
3A
100
AcDbScale
 70
     0
300
1:100
140
1.0
141
100.0
290
     0
  0
SCALE
  5
47
102
{ACAD_REACTORS
330
3A
102
}
330
3A
100
AcDbScale
 70
     0
300
2:1
140
2.0
141
1.0
290
     0
  0
SCALE
  5
48
102
{ACAD_REACTORS
330
3A
102
}
330
3A
100
AcDbScale
 70
     0
300
4:1
140
4.0
141
1.0
290
     0
  0
SCALE
  5
49
102
{ACAD_REACTORS
330
3A
102
}
330
3A
100
AcDbScale
 70
     0
300
8:1
140
8.0
141
1.0
290
     0
  0
SCALE
  5
4A
102
{ACAD_REACTORS
330
3A
102
}
330
3A
100
AcDbScale
 70
     0
300
10:1
140
10.0
141
1.0
290
     0
  0
SCALE
  5
4B
102
{ACAD_REACTORS
330
3A
102
}
330
3A
100
AcDbScale
 70
     0
300
100:1
140
100.0
141
1.0
290
     0
  0
SCALE
  5
4C
102
{ACAD_REACTORS
330
3A
102
}
330
3A
100
AcDbScale
 70
     0
300
1/128" = 1'-0"
140
0.0078125
141
12.0
290
     0
  0
SCALE
  5
4D
102
{ACAD_REACTORS
330
3A
102
}
330
3A
100
AcDbScale
 70
     0
300
1/64" = 1'-0"
140
0.015625
141
12.0
290
     0
  0
SCALE
  5
4E
102
{ACAD_REACTORS
330
3A
102
}
330
3A
100
AcDbScale
 70
     0
300
1/32" = 1'-0"
140
0.03125
141
12.0
290
     0
  0
SCALE
  5
4F
102
{ACAD_REACTORS
330
3A
102
}
330
3A
100
AcDbScale
 70
     0
300
1/16" = 1'-0"
140
0.0625
141
12.0
290
     0
  0
SCALE
  5
50
102
{ACAD_REACTORS
330
3A
102
}
330
3A
100
AcDbScale
 70
     0
300
3/32" = 1'-0"
140
0.09375
141
12.0
290
     0
  0
SCALE
  5
51
102
{ACAD_REACTORS
330
3A
102
}
330
3A
100
AcDbScale
 70
     0
300
1/8" = 1'-0"
140
0.125
141
12.0
290
     0
  0
SCALE
  5
52
102
{ACAD_REACTORS
330
3A
102
}
330
3A
100
AcDbScale
 70
     0
300
3/16" = 1'-0"
140
0.1875
141
12.0
290
     0
  0
SCALE
  5
53
102
{ACAD_REACTORS
330
3A
102
}
330
3A
100
AcDbScale
 70
     0
300
1/4" = 1'-0"
140
0.25
141
12.0
290
     0
  0
SCALE
  5
54
102
{ACAD_REACTORS
330
3A
102
}
330
3A
100
AcDbScale
 70
     0
300
3/8" = 1'-0"
140
0.375
141
12.0
290
     0
  0
SCALE
  5
55
102
{ACAD_REACTORS
330
3A
102
}
330
3A
100
AcDbScale
 70
     0
300
1/2" = 1'-0"
140
0.5
141
12.0
290
     0
  0
SCALE
  5
56
102
{ACAD_REACTORS
330
3A
102
}
330
3A
100
AcDbScale
 70
     0
300
3/4" = 1'-0"
140
0.75
141
12.0
290
     0
  0
SCALE
  5
57
102
{ACAD_REACTORS
330
3A
102
}
330
3A
100
AcDbScale
 70
     0
300
1" = 1'-0"
140
1.0
141
12.0
290
     0
  0
SCALE
  5
58
102
{ACAD_REACTORS
330
3A
102
}
330
3A
100
AcDbScale
 70
     0
300
1-1/2" = 1'-0"
140
1.5
141
12.0
290
     0
  0
SCALE
  5
59
102
{ACAD_REACTORS
330
3A
102
}
330
3A
100
AcDbScale
 70
     0
300
3" = 1'-0"
140
3.0
141
12.0
290
     0
  0
SCALE
  5
5A
102
{ACAD_REACTORS
330
3A
102
}
330
3A
100
AcDbScale
 70
     0
300
6" = 1'-0"
140
6.0
141
12.0
290
     0
  0
SCALE
  5
5B
102
{ACAD_REACTORS
330
3A
102
}
330
3A
100
AcDbScale
 70
     0
300
1'-0" = 1'-0"
140
12.0
141
12.0
290
     0
  0
TABLESTYLE
  5
6D
102
{ACAD_XDICTIONARY
360
7D
102
}
102
{ACAD_REACTORS
330
6C
102
}
330
6C
100
AcDbTableStyle
  3
Standard
 70
     0
 71
     0
 40
0.06
 41
0.06
280
     0
281
     0
  7
Standard
140
0.18
170
     2
 62
     0
 63
     7
283
     0
 90
      512
 91
        0
  1

274
    -2
284
     1
 64
     0
275
    -2
285
     1
 65
     0
276
    -2
286
     1
 66
     0
277
    -2
287
     1
 67
     0
278
    -2
288
     1
 68
     0
279
    -2
289
     1
 69
     0
  7
Standard
140
0.25
170
     5
 62
     0
 63
     7
283
     0
 90
      512
 91
        0
  1

274
    -2
284
     1
 64
     0
275
    -2
285
     1
 65
     0
276
    -2
286
     1
 66
     0
277
    -2
287
     1
 67
     0
278
    -2
288
     1
 68
     0
279
    -2
289
     1
 69
     0
  7
Standard
140
0.18
170
     5
 62
     0
 63
     7
283
     0
 90
      512
 91
        0
  1

274
    -2
284
     1
 64
     0
275
    -2
285
     1
 65
     0
276
    -2
286
     1
 66
     0
277
    -2
287
     1
 67
     0
278
    -2
288
     1
 68
     0
279
    -2
289
     1
 69
     0
  0
VISUALSTYLE
  5
2F
102
{ACAD_REACTORS
330
29
102
}
330
29
100
AcDbVisualStyle
  2
2dWireframe
 70
     4
 71
     0
 72
     2
 73
     0
 90
        0
 40
-0.6
 41
-30.0
 62
     5
 63
     7
421
 16777215
 74
     1
 91
        4
 64
     7
 65
   257
 75
     1
175
     1
 42
1.0
 92
        0
 66
   257
 43
1.0
 76
     1
 77
     6
 78
     2
 67
     7
 79
     5
170
     0
171
     0
290
     0
174
     0
 93
        1
 44
0.0
173
     0
291
     0
 45
0.0
1001
ACAD
1000
AcDbSavedByObjectVersion
1070
     0
  0
VISUALSTYLE
  5
31
102
{ACAD_REACTORS
330
29
102
}
330
29
100
AcDbVisualStyle
  2
3D Hidden
 70
     6
 71
     1
 72
     2
 73
     2
 90
        0
 40
-0.6
 41
-30.0
 62
     5
 63
     7
421
 16777215
 74
     2
 91
        2
 64
     7
 65
   257
 75
     2
175
     1
 42
40.0
 92
        0
 66
   257
 43
1.0
 76
     1
 77
     6
 78
     2
 67
     7
 79
     3
170
     0
171
     0
290
     0
174
     0
 93
        1
 44
0.0
173
     0
291
     0
 45
0.0
1001
ACAD
1000
AcDbSavedByObjectVersion
1070
     0
  0
VISUALSTYLE
  5
30
102
{ACAD_REACTORS
330
29
102
}
330
29
100
AcDbVisualStyle
  2
3dWireframe
 70
     5
 71
     0
 72
     2
 73
     0
 90
        0
 40
-0.6
 41
-30.0
 62
     5
 63
     7
421
 16777215
 74
     1
 91
        4
 64
     7
 65
   257
 75
     1
175
     1
 42
1.0
 92
        0
 66
   257
 43
1.0
 76
     1
 77
     6
 78
     2
 67
     7
 79
     5
170
     0
171
     0
290
     0
174
     0
 93
        1
 44
0.0
173
     0
291
     0
 45
0.0
1001
ACAD
1000
AcDbSavedByObjectVersion
1070
     0
  0
VISUALSTYLE
  5
2E
102
{ACAD_REACTORS
330
29
102
}
330
29
100
AcDbVisualStyle
  2
Basic
 70
     7
 71
     1
 72
     0
 73
     1
 90
        0
 40
-0.6
 41
-30.0
 62
     5
 63
     7
421
 16777215
 74
     0
 91
        4
 64
     7
 65
   257
 75
     1
175
     1
 42
1.0
 92
        8
 66
     7
 43
1.0
 76
     1
 77
     6
 78
     2
 67
     7
 79
     5
170
     0
171
     0
290
     0
174
     0
 93
        1
 44
0.0
173
     0
291
     1
 45
0.0
1001
ACAD
1000
AcDbSavedByObjectVersion
1070
     0
  0
VISUALSTYLE
  5
35
102
{ACAD_REACTORS
330
29
102
}
330
29
100
AcDbVisualStyle
  2
Brighten
 70
    12
 71
     2
 72
     2
 73
     0
 90
        0
 40
-0.6
 41
-30.0
 62
     5
 63
     7
421
 16777215
 74
     1
 91
        4
 64
     7
 65
   257
 75
     1
175
     1
 42
1.0
 92
        8
 66
     7
 43
1.0
 76
     1
 77
     6
 78
     2
 67
     7
 79
     5
170
     0
171
     0
290
     0
174
     0
 93
        1
 44
50.0
173
     0
291
     1
 45
0.0
1001
ACAD
1000
AcDbSavedByObjectVersion
1070
     0
  0
VISUALSTYLE
  5
39
102
{ACAD_REACTORS
330
29
102
}
330
29
100
AcDbVisualStyle
  2
ColorChange
 70
    16
 71
     2
 72
     2
 73
     3
 90
        0
 40
-0.6
 41
-30.0
 62
     5
 63
     8
421
  8421504
 74
     1
 91
        4
 64
     7
 65
   257
 75
     1
175
     1
 42
1.0
 92
        8
 66
     8
424
  8421504
 43
1.0
 76
     1
 77
     6
 78
     2
 67
     7
 79
     5
170
     0
171
     0
290
     0
174
     0
 93
        1
 44
0.0
173
     0
291
     1
 45
0.0
1001
ACAD
1000
AcDbSavedByObjectVersion
1070
     0
  0
VISUALSTYLE
  5
32
102
{ACAD_REACTORS
330
29
102
}
330
29
100
AcDbVisualStyle
  2
Conceptual
 70
     9
 71
     3
 72
     2
 73
     0
 90
        0
 40
-0.6
 41
-30.0
 62
     5
 63
     7
421
 16777215
 74
     2
 91
        2
 64
     7
 65
   257
 75
     1
175
     1
 42
40.0
 92
        8
 66
     7
 43
1.0
 76
     1
 77
     6
 78
     2
 67
     7
 79
     3
170
     0
171
     0
290
     0
174
     0
 93
        1
 44
0.0
173
     0
291
     0
 45
0.0
1001
ACAD
1000
AcDbSavedByObjectVersion
1070
     0
  0
VISUALSTYLE
  5
34
102
{ACAD_REACTORS
330
29
102
}
330
29
100
AcDbVisualStyle
  2
Dim
 70
    11
 71
     2
 72
     2
 73
     0
 90
        0
 40
-0.6
 41
-30.0
 62
     5
 63
     7
421
 16777215
 74
     1
 91
        4
 64
     7
 65
   257
 75
     1
175
     1
 42
1.0
 92
        8
 66
     7
 43
1.0
 76
     1
 77
     6
 78
     2
 67
     7
 79
     5
170
     0
171
     0
290
     0
174
     0
 93
        1
 44
-50.0
173
     0
291
     1
 45
0.0
1001
ACAD
1000
AcDbSavedByObjectVersion
1070
     0
  0
VISUALSTYLE
  5
38
102
{ACAD_REACTORS
330
29
102
}
330
29
100
AcDbVisualStyle
  2
Facepattern
 70
    15
 71
     2
 72
     2
 73
     0
 90
        0
 40
-0.6
 41
-30.0
 62
     5
 63
     7
421
 16777215
 74
     1
 91
        4
 64
     7
 65
   257
 75
     1
175
     1
 42
1.0
 92
        8
 66
     7
 43
1.0
 76
     1
 77
     6
 78
     2
 67
     7
 79
     5
170
     0
171
     0
290
     0
174
     0
 93
        1
 44
0.0
173
     0
291
     1
 45
0.0
1001
ACAD
1000
AcDbSavedByObjectVersion
1070
     0
  0
VISUALSTYLE
  5
2A
102
{ACAD_REACTORS
330
29
102
}
330
29
100
AcDbVisualStyle
  2
Flat
 70
     0
 71
     2
 72
     1
 73
     1
 90
        2
 40
-0.6
 41
30.0
 62
     5
 63
     7
421
 16777215
 74
     0
 91
        4
 64
     7
 65
   257
 75
     1
175
     1
 42
1.0
 92
        8
 66
     7
 43
1.0
 76
     1
 77
     6
 78
     2
 67
     7
 79
     5
170
     0
171
     0
290
     0
174
     0
 93
       13
 44
0.0
173
     0
291
     1
 45
0.0
1001
ACAD
1000
AcDbSavedByObjectVersion
1070
     0
  0
VISUALSTYLE
  5
2B
102
{ACAD_REACTORS
330
29
102
}
330
29
100
AcDbVisualStyle
  2
FlatWithEdges
 70
     1
 71
     2
 72
     1
 73
     1
 90
        2
 40
-0.6
 41
30.0
 62
     5
 63
     7
421
 16777215
 74
     1
 91
        4
 64
     7
 65
   257
 75
     1
175
     1
 42
1.0
 92
        0
 66
   257
 43
1.0
 76
     1
 77
     6
 78
     2
 67
     7
 79
     5
170
     0
171
     0
290
     0
174
     0
 93
       13
 44
0.0
173
     0
291
     1
 45
0.0
1001
ACAD
1000
AcDbSavedByObjectVersion
1070
     0
  0
VISUALSTYLE
  5
2C
102
{ACAD_REACTORS
330
29
102
}
330
29
100
AcDbVisualStyle
  2
Gouraud
 70
     2
 71
     2
 72
     2
 73
     1
 90
        2
 40
-0.6
 41
30.0
 62
     5
 63
     7
421
 16777215
 74
     0
 91
        4
 64
     7
 65
   257
 75
     1
175
     1
 42
1.0
 92
        0
 66
     7
 43
1.0
 76
     1
 77
     6
 78
     2
 67
     7
 79
     5
170
     0
171
     0
290
     0
174
     0
 93
       13
 44
0.0
173
     0
291
     1
 45
0.0
1001
ACAD
1000
AcDbSavedByObjectVersion
1070
     0
  0
VISUALSTYLE
  5
2D
102
{ACAD_REACTORS
330
29
102
}
330
29
100
AcDbVisualStyle
  2
GouraudWithEdges
 70
     3
 71
     2
 72
     2
 73
     1
 90
        2
 40
-0.6
 41
30.0
 62
     5
 63
     7
421
 16777215
 74
     1
 91
        4
 64
     7
 65
   257
 75
     1
175
     1
 42
1.0
 92
        0
 66
   257
 43
1.0
 76
     1
 77
     6
 78
     2
 67
     7
 79
     5
170
     0
171
     0
290
     0
174
     0
 93
       13
 44
0.0
173
     0
291
     1
 45
0.0
1001
ACAD
1000
AcDbSavedByObjectVersion
1070
     0
  0
VISUALSTYLE
  5
37
102
{ACAD_REACTORS
330
29
102
}
330
29
100
AcDbVisualStyle
  2
Linepattern
 70
    14
 71
     2
 72
     2
 73
     0
 90
        0
 40
-0.6
 41
-30.0
 62
     5
 63
     7
421
 16777215
 74
     1
 91
        4
 64
     7
 65
   257
 75
     7
175
     7
 42
1.0
 92
        8
 66
     7
 43
1.0
 76
     1
 77
     6
 78
     2
 67
     7
 79
     5
170
     0
171
     0
290
     0
174
     0
 93
        1
 44
0.0
173
     0
291
     1
 45
0.0
1001
ACAD
1000
AcDbSavedByObjectVersion
1070
     0
  0
VISUALSTYLE
  5
33
102
{ACAD_REACTORS
330
29
102
}
330
29
100
AcDbVisualStyle
  2
Realistic
 70
     8
 71
     2
 72
     2
 73
     0
 90
        0
 40
-0.6
 41
-30.0
 62
     5
 63
     7
421
 16777215
 74
     1
 91
        0
 64
     7
 65
   257
 75
     1
175
     1
 42
1.0
 92
        8
 66
     8
424
  7895160
 43
1.0
 76
     1
 77
     6
 78
     2
 67
     7
 79
     5
170
     0
171
     0
290
     0
174
     0
 93
       13
 44
0.0
173
     0
291
     0
 45
0.0
1001
ACAD
1000
AcDbSavedByObjectVersion
1070
     0
  0
VISUALSTYLE
  5
36
102
{ACAD_REACTORS
330
29
102
}
330
29
100
AcDbVisualStyle
  2
Thicken
 70
    13
 71
     2
 72
     2
 73
     0
 90
        0
 40
-0.6
 41
-30.0
 62
     5
 63
     7
421
 16777215
 74
     1
 91
        4
 64
     7
 65
   257
 75
     1
175
     1
 42
1.0
 92
       12
 66
     7
 43
1.0
 76
     1
 77
     6
 78
     2
 67
     7
 79
     5
170
     0
171
     0
290
     0
174
     0
 93
        1
 44
0.0
173
     0
291
     1
 45
0.0
1001
ACAD
1000
AcDbSavedByObjectVersion
1070
     0
  0
DICTIONARYVAR
  5
83
102
{ACAD_REACTORS
330
80
102
}
330
80
100
DictionaryVariables
280
     0
  1
1:1
  0
DICTIONARYVAR
  5
82
102
{ACAD_REACTORS
330
80
102
}
330
80
100
DictionaryVariables
280
     0
  1
STANDARD
  0
DICTIONARYVAR
  5
81
102
{ACAD_REACTORS
330
80
102
}
330
80
100
DictionaryVariables
280
     0
  1
STANDARD
  0
DICTIONARYVAR
  5
CE0
102
{ACAD_REACTORS
330
80
102
}
330
80
100
DictionaryVariables
280
     0
  1
0
  0
DICTIONARYVAR
  5
CE1
102
{ACAD_REACTORS
330
80
102
}
330
80
100
DictionaryVariables
280
     0
  1
0
  0
DICTIONARYVAR
  5
CDF
102
{ACAD_REACTORS
330
80
102
}
330
80
100
DictionaryVariables
280
     0
  1
2
  0
DICTIONARYVAR
  5
CDE
102
{ACAD_REACTORS
330
80
102
}
330
80
100
DictionaryVariables
280
     0
  1
1
  0
DICTIONARY
  5
D9C
102
{ACAD_REACTORS
330
D8F
102
}
330
D8F
100
AcDbDictionary
281
     1
  0
DICTIONARY
  5
1A
330
19
100
AcDbDictionary
280
     1
281
     1
  3
ACAD_XREC_ROUNDTRIP
360
D18
  3
BUMPTILE
360
1C
  3
DIFFUSETILE
360
1B
  3
OPACITYTILE
360
1F
  3
REFLECTIONTILE
360
1E
  3
REFRACTIONTILE
360
20
  3
SPECULARTILE
360
1D
  0
DICTIONARY
  5
12
330
11
100
AcDbDictionary
280
     1
281
     1
  3
ACAD_XREC_ROUNDTRIP
360
D17
  3
BUMPTILE
360
14
  3
DIFFUSETILE
360
13
  3
OPACITYTILE
360
17
  3
REFLECTIONTILE
360
16
  3
REFRACTIONTILE
360
18
  3
SPECULARTILE
360
15
  0
DICTIONARY
  5
22
330
21
100
AcDbDictionary
280
     1
281
     1
  3
ACAD_XREC_ROUNDTRIP
360
D19
  3
BUMPTILE
360
24
  3
DIFFUSETILE
360
23
  3
OPACITYTILE
360
27
  3
REFLECTIONTILE
360
26
  3
REFRACTIONTILE
360
28
  3
SPECULARTILE
360
25
  0
DICTIONARY
  5
7D
330
6D
100
AcDbDictionary
280
     1
281
     1
  3
ACAD_ROUNDTRIP_2008_TABLESTYLE_CELLSTYLEMAP
360
EC0
  0
XRECORD
  5
D18
102
{ACAD_REACTORS
330
1A
102
}
330
1A
100
AcDbXrecord
280
     1
102
MATERIAL
148
0.0
149
0.0
149
0.0
 93
        0
 94
      127
282
     0
 72
     0
 77
     0
171
     0
175
     0
179
     0
273
     0
  0
XRECORD
  5
1C
102
{ACAD_REACTORS
330
1A
102
}
330
1A
100
AcDbXrecord
280
     1
270
     1
271
     1
  0
XRECORD
  5
1B
102
{ACAD_REACTORS
330
1A
102
}
330
1A
100
AcDbXrecord
280
     1
270
     1
271
     1
  0
XRECORD
  5
1F
102
{ACAD_REACTORS
330
1A
102
}
330
1A
100
AcDbXrecord
280
     1
270
     1
271
     1
  0
XRECORD
  5
1E
102
{ACAD_REACTORS
330
1A
102
}
330
1A
100
AcDbXrecord
280
     1
270
     1
271
     1
  0
XRECORD
  5
20
102
{ACAD_REACTORS
330
1A
102
}
330
1A
100
AcDbXrecord
280
     1
270
     1
271
     1
  0
XRECORD
  5
1D
102
{ACAD_REACTORS
330
1A
102
}
330
1A
100
AcDbXrecord
280
     1
270
     1
271
     1
  0
XRECORD
  5
D17
102
{ACAD_REACTORS
330
12
102
}
330
12
100
AcDbXrecord
280
     1
102
MATERIAL
148
0.0
149
0.0
149
0.0
 93
        0
 94
      127
282
     0
 72
     0
 77
     0
171
     0
175
     0
179
     0
273
     0
  0
XRECORD
  5
14
102
{ACAD_REACTORS
330
12
102
}
330
12
100
AcDbXrecord
280
     1
270
     1
271
     1
  0
XRECORD
  5
13
102
{ACAD_REACTORS
330
12
102
}
330
12
100
AcDbXrecord
280
     1
270
     1
271
     1
  0
XRECORD
  5
17
102
{ACAD_REACTORS
330
12
102
}
330
12
100
AcDbXrecord
280
     1
270
     1
271
     1
  0
XRECORD
  5
16
102
{ACAD_REACTORS
330
12
102
}
330
12
100
AcDbXrecord
280
     1
270
     1
271
     1
  0
XRECORD
  5
18
102
{ACAD_REACTORS
330
12
102
}
330
12
100
AcDbXrecord
280
     1
270
     1
271
     1
  0
XRECORD
  5
15
102
{ACAD_REACTORS
330
12
102
}
330
12
100
AcDbXrecord
280
     1
270
     1
271
     1
  0
XRECORD
  5
D19
102
{ACAD_REACTORS
330
22
102
}
330
22
100
AcDbXrecord
280
     1
102
MATERIAL
148
0.0
149
0.0
149
0.0
 93
        0
 94
      127
282
     0
 72
     0
 77
     0
171
     0
175
     0
179
     0
273
     0
  0
XRECORD
  5
24
102
{ACAD_REACTORS
330
22
102
}
330
22
100
AcDbXrecord
280
     1
270
     1
271
     1
  0
XRECORD
  5
23
102
{ACAD_REACTORS
330
22
102
}
330
22
100
AcDbXrecord
280
     1
270
     1
271
     1
  0
XRECORD
  5
27
102
{ACAD_REACTORS
330
22
102
}
330
22
100
AcDbXrecord
280
     1
270
     1
271
     1
  0
XRECORD
  5
26
102
{ACAD_REACTORS
330
22
102
}
330
22
100
AcDbXrecord
280
     1
270
     1
271
     1
  0
XRECORD
  5
28
102
{ACAD_REACTORS
330
22
102
}
330
22
100
AcDbXrecord
280
     1
270
     1
271
     1
  0
XRECORD
  5
25
102
{ACAD_REACTORS
330
22
102
}
330
22
100
AcDbXrecord
280
     1
270
     1
271
     1
  0
CELLSTYLEMAP
  5
EC0
102
{ACAD_REACTORS
330
7D
102
}
330
7D
100
AcDbCellStyleMap
 90
        3
300
CELLSTYLE
  1
TABLEFORMAT_BEGIN
 90
        5
170
     1
 91
        0
 92
    32768
 62
   257
 93
        1
300
CONTENTFORMAT
  1
CONTENTFORMAT_BEGIN
 90
        0
 91
        0
 92
      512
 93
        0
300

 40
0.0
140
1.0
 94
        5
 62
     0
340
5D
144
0.25
309
CONTENTFORMAT_END
171
     1
301
MARGIN
  1
CELLMARGIN_BEGIN
 40
0.06
 40
0.06
 40
0.06
 40
0.06
 40
0.18
 40
0.18
309
CELLMARGIN_END
 94
        6
 95
        1
302
GRIDFORMAT
  1
GRIDFORMAT_BEGIN
 90
        0
 91
        1
 62
     0
 92
       -2
340
0
 93
        0
 40
0.045
309
GRIDFORMAT_END
 95
        2
302
GRIDFORMAT
  1
GRIDFORMAT_BEGIN
 90
        0
 91
        1
 62
     0
 92
       -2
340
0
 93
        0
 40
0.045
309
GRIDFORMAT_END
 95
        4
302
GRIDFORMAT
  1
GRIDFORMAT_BEGIN
 90
        0
 91
        1
 62
     0
 92
       -2
340
0
 93
        0
 40
0.045
309
GRIDFORMAT_END
 95
        8
302
GRIDFORMAT
  1
GRIDFORMAT_BEGIN
 90
        0
 91
        1
 62
     0
 92
       -2
340
0
 93
        0
 40
0.045
309
GRIDFORMAT_END
 95
       16
302
GRIDFORMAT
  1
GRIDFORMAT_BEGIN
 90
        0
 91
        1
 62
     0
 92
       -2
340
0
 93
        0
 40
0.045
309
GRIDFORMAT_END
 95
       32
302
GRIDFORMAT
  1
GRIDFORMAT_BEGIN
 90
        0
 91
        1
 62
     0
 92
       -2
340
0
 93
        0
 40
0.045
309
GRIDFORMAT_END
309
TABLEFORMAT_END
  1
CELLSTYLE_BEGIN
 90
        1
 91
        1
300
_TITLE
309
CELLSTYLE_END
300
CELLSTYLE
  1
TABLEFORMAT_BEGIN
 90
        5
170
     1
 91
        0
 92
        0
 62
   257
 93
        1
300
CONTENTFORMAT
  1
CONTENTFORMAT_BEGIN
 90
        0
 91
        0
 92
      512
 93
        0
300

 40
0.0
140
1.0
 94
        5
 62
     0
340
5D
144
0.18
309
CONTENTFORMAT_END
171
     1
301
MARGIN
  1
CELLMARGIN_BEGIN
 40
0.06
 40
0.06
 40
0.06
 40
0.06
 40
0.18
 40
0.18
309
CELLMARGIN_END
 94
        6
 95
        1
302
GRIDFORMAT
  1
GRIDFORMAT_BEGIN
 90
        0
 91
        1
 62
     0
 92
       -2
340
0
 93
        0
 40
0.045
309
GRIDFORMAT_END
 95
        2
302
GRIDFORMAT
  1
GRIDFORMAT_BEGIN
 90
        0
 91
        1
 62
     0
 92
       -2
340
0
 93
        0
 40
0.045
309
GRIDFORMAT_END
 95
        4
302
GRIDFORMAT
  1
GRIDFORMAT_BEGIN
 90
        0
 91
        1
 62
     0
 92
       -2
340
0
 93
        0
 40
0.045
309
GRIDFORMAT_END
 95
        8
302
GRIDFORMAT
  1
GRIDFORMAT_BEGIN
 90
        0
 91
        1
 62
     0
 92
       -2
340
0
 93
        0
 40
0.045
309
GRIDFORMAT_END
 95
       16
302
GRIDFORMAT
  1
GRIDFORMAT_BEGIN
 90
        0
 91
        1
 62
     0
 92
       -2
340
0
 93
        0
 40
0.045
309
GRIDFORMAT_END
 95
       32
302
GRIDFORMAT
  1
GRIDFORMAT_BEGIN
 90
        0
 91
        1
 62
     0
 92
       -2
340
0
 93
        0
 40
0.045
309
GRIDFORMAT_END
309
TABLEFORMAT_END
  1
CELLSTYLE_BEGIN
 90
        2
 91
        1
300
_HEADER
309
CELLSTYLE_END
300
CELLSTYLE
  1
TABLEFORMAT_BEGIN
 90
        5
170
     1
 91
        0
 92
        0
 62
   257
 93
        1
300
CONTENTFORMAT
  1
CONTENTFORMAT_BEGIN
 90
        0
 91
        0
 92
      512
 93
        0
300

 40
0.0
140
1.0
 94
        2
 62
     0
340
5D
144
0.18
309
CONTENTFORMAT_END
171
     1
301
MARGIN
  1
CELLMARGIN_BEGIN
 40
0.06
 40
0.06
 40
0.06
 40
0.06
 40
0.18
 40
0.18
309
CELLMARGIN_END
 94
        6
 95
        1
302
GRIDFORMAT
  1
GRIDFORMAT_BEGIN
 90
        0
 91
        1
 62
     0
 92
       -2
340
0
 93
        0
 40
0.045
309
GRIDFORMAT_END
 95
        2
302
GRIDFORMAT
  1
GRIDFORMAT_BEGIN
 90
        0
 91
        1
 62
     0
 92
       -2
340
0
 93
        0
 40
0.045
309
GRIDFORMAT_END
 95
        4
302
GRIDFORMAT
  1
GRIDFORMAT_BEGIN
 90
        0
 91
        1
 62
     0
 92
       -2
340
0
 93
        0
 40
0.045
309
GRIDFORMAT_END
 95
        8
302
GRIDFORMAT
  1
GRIDFORMAT_BEGIN
 90
        0
 91
        1
 62
     0
 92
       -2
340
0
 93
        0
 40
0.045
309
GRIDFORMAT_END
 95
       16
302
GRIDFORMAT
  1
GRIDFORMAT_BEGIN
 90
        0
 91
        1
 62
     0
 92
       -2
340
0
 93
        0
 40
0.045
309
GRIDFORMAT_END
 95
       32
302
GRIDFORMAT
  1
GRIDFORMAT_BEGIN
 90
        0
 91
        1
 62
     0
 92
       -2
340
0
 93
        0
 40
0.045
309
GRIDFORMAT_END
309
TABLEFORMAT_END
  1
CELLSTYLE_BEGIN
 90
        3
 91
        2
300
_DATA
309
CELLSTYLE_END
  0
ENDSEC
  0
EOF
